  0
SECTION
  2
HEADER
  9
$ACADVER
  1
AC1015
  9
$ACADMAINTVER
 70
     6
  9
$DWGCODEPAGE
  3
ANSI_1254
  9
$INSBASE
 10
0.0
 20
0.0
 30
0.0
  9
$EXTMIN
 10
0.0
 20
0.0
 30
0.0
  9
$EXTMAX
 10
279.4
 20
215.9
 30
0.0
  9
$LIMMIN
 10
0.0
 20
0.0
  9
$LIMMAX
 10
279.4
 20
215.9
  9
$ORTHOMODE
 70
     0
  9
$REGENMODE
 70
     1
  9
$FILLMODE
 70
     1
  9
$QTEXTMODE
 70
     0
  9
$MIRRTEXT
 70
     1
  9
$LTSCALE
 40
1.0
  9
$ATTMODE
 70
     1
  9
$TEXTSIZE
 40
3.5
  9
$TRACEWID
 40
1.0
  9
$TEXTSTYLE
  7
Standard
  9
$CLAYER
  8
0
  9
$CELTYPE
  6
ByLayer
  9
$CECOLOR
 62
   256
  9
$CELTSCALE
 40
1.0
  9
$DISPSILH
 70
     0
  9
$DIMSCALE
 40
1.0
  9
$DIMASZ
 40
3.5
  9
$DIMEXO
 40
1.0
  9
$DIMDLI
 40
3.75
  9
$DIMRND
 40
0.0
  9
$DIMDLE
 40
0.0
  9
$DIMEXE
 40
1.0
  9
$DIMTP
 40
0.0
  9
$DIMTM
 40
0.0
  9
$DIMTXT
 40
3.5
  9
$DIMCEN
 40
2.5
  9
$DIMTSZ
 40
0.0
  9
$DIMTOL
 70
     0
  9
$DIMLIM
 70
     0
  9
$DIMTIH
 70
     1
  9
$DIMTOH
 70
     1
  9
$DIMSE1
 70
     0
  9
$DIMSE2
 70
     0
  9
$DIMTAD
 70
     1
  9
$DIMZIN
 70
     0
  9
$DIMBLK
  1

  9
$DIMASO
 70
     1
  9
$DIMSHO
 70
     1
  9
$DIMPOST
  1

  9
$DIMAPOST
  1

  9
$DIMALT
 70
     0
  9
$DIMALTD
 70
     3
  9
$DIMALTF
 40
0.0393700787
  9
$DIMLFAC
 40
1.0
  9
$DIMTOFL
 70
     1
  9
$DIMTVP
 40
0.0
  9
$DIMTIX
 70
     0
  9
$DIMSOXD
 70
     0
  9
$DIMSAH
 70
     0
  9
$DIMBLK1
  1

  9
$DIMBLK2
  1

  9
$DIMSTYLE
  2
ISO-25
  9
$DIMCLRD
 70
     0
  9
$DIMCLRE
 70
     0
  9
$DIMCLRT
 70
     0
  9
$DIMTFAC
 40
1.0
  9
$DIMGAP
 40
1.524
  9
$DIMJUST
 70
     0
  9
$DIMSD1
 70
     0
  9
$DIMSD2
 70
     0
  9
$DIMTOLJ
 70
     0
  9
$DIMTZIN
 70
     0
  9
$DIMALTZ
 70
     0
  9
$DIMALTTZ
 70
     0
  9
$DIMUPT
 70
     0
  9
$DIMDEC
 70
     2
  9
$DIMTDEC
 70
     2
  9
$DIMALTU
 70
     2
  9
$DIMALTTD
 70
     3
  9
$DIMTXSTY
  7
Standard
  9
$DIMAUNIT
 70
     0
  9
$DIMADEC
 70
     2
  9
$DIMALTRND
 40
0.0
  9
$DIMAZIN
 70
     0
  9
$DIMDSEP
 70
    44
  9
$DIMATFIT
 70
     3
  9
$DIMFRAC
 70
     0
  9
$DIMLDRBLK
  1

  9
$DIMLUNIT
 70
     2
  9
$DIMLWD
 70
    -2
  9
$DIMLWE
 70
    -2
  9
$DIMTMOVE
 70
     0
  9
$LUNITS
 70
     2
  9
$LUPREC
 70
     2
  9
$SKETCHINC
 40
1.0
  9
$FILLETRAD
 40
10.0
  9
$AUNITS
 70
     0
  9
$AUPREC
 70
     2
  9
$MENU
  1
.
  9
$ELEVATION
 40
0.0
  9
$PELEVATION
 40
0.0
  9
$THICKNESS
 40
0.0
  9
$LIMCHECK
 70
     0
  9
$CHAMFERA
 40
0.0
  9
$CHAMFERB
 40
0.0
  9
$CHAMFERC
 40
0.0
  9
$CHAMFERD
 40
0.0
  9
$SKPOLY
 70
     0
  9
$TDCREATE
 40
2459935.699937002
  9
$TDUCREATE
 40
2459935.574937002
  9
$TDUPDATE
 40
2459935.699937188
  9
$TDUUPDATE
 40
2459935.574937188
  9
$TDINDWG
 40
0.0000000116
  9
$TDUSRTIMER
 40
0.0000000116
  9
$USRTIMER
 70
     1
  9
$ANGBASE
 50
0.0
  9
$ANGDIR
 70
     0
  9
$PDMODE
 70
     0
  9
$PDSIZE
 40
-1.0
  9
$PLINEWID
 40
0.0
  9
$SPLFRAME
 70
     0
  9
$SPLINETYPE
 70
     6
  9
$SPLINESEGS
 70
     8
  9
$HANDSEED
  5
ED
  9
$SURFTAB1
 70
     6
  9
$SURFTAB2
 70
     6
  9
$SURFTYPE
 70
     6
  9
$SURFU
 70
     6
  9
$SURFV
 70
     6
  9
$UCSBASE
  2

  9
$UCSNAME
  2

  9
$UCSORG
 10
0.0
 20
0.0
 30
0.0
  9
$UCSXDIR
 10
1.0
 20
0.0
 30
0.0
  9
$UCSYDIR
 10
0.0
 20
1.0
 30
0.0
  9
$UCSORTHOREF
  2

  9
$UCSORTHOVIEW
 70
     0
  9
$UCSORGTOP
 10
0.0
 20
0.0
 30
0.0
  9
$UCSORGBOTTOM
 10
0.0
 20
0.0
 30
0.0
  9
$UCSORGLEFT
 10
0.0
 20
0.0
 30
0.0
  9
$UCSORGRIGHT
 10
0.0
 20
0.0
 30
0.0
  9
$UCSORGFRONT
 10
0.0
 20
0.0
 30
0.0
  9
$UCSORGBACK
 10
0.0
 20
0.0
 30
0.0
  9
$PUCSBASE
  2

  9
$PUCSNAME
  2

  9
$PUCSORG
 10
0.0
 20
0.0
 30
0.0
  9
$PUCSXDIR
 10
1.0
 20
0.0
 30
0.0
  9
$PUCSYDIR
 10
0.0
 20
1.0
 30
0.0
  9
$PUCSORTHOREF
  2

  9
$PUCSORTHOVIEW
 70
     0
  9
$PUCSORGTOP
 10
0.0
 20
0.0
 30
0.0
  9
$PUCSORGBOTTOM
 10
0.0
 20
0.0
 30
0.0
  9
$PUCSORGLEFT
 10
0.0
 20
0.0
 30
0.0
  9
$PUCSORGRIGHT
 10
0.0
 20
0.0
 30
0.0
  9
$PUCSORGFRONT
 10
0.0
 20
0.0
 30
0.0
  9
$PUCSORGBACK
 10
0.0
 20
0.0
 30
0.0
  9
$USERI1
 70
     0
  9
$USERI2
 70
     0
  9
$USERI3
 70
     0
  9
$USERI4
 70
     0
  9
$USERI5
 70
     0
  9
$USERR1
 40
0.0
  9
$USERR2
 40
0.0
  9
$USERR3
 40
0.0
  9
$USERR4
 40
0.0
  9
$USERR5
 40
0.0
  9
$WORLDVIEW
 70
     1
  9
$SHADEDGE
 70
     3
  9
$SHADEDIF
 70
    70
  9
$TILEMODE
 70
     1
  9
$MAXACTVP
 70
    64
  9
$PINSBASE
 10
0.0
 20
0.0
 30
0.0
  9
$PLIMCHECK
 70
     0
  9
$PEXTMIN
 10
1.0000000000E+20
 20
1.0000000000E+20
 30
1.0000000000E+20
  9
$PEXTMAX
 10
-1.0000000000E+20
 20
-1.0000000000E+20
 30
-1.0000000000E+20
  9
$PLIMMIN
 10
0.0
 20
0.0
  9
$PLIMMAX
 10
420.0
 20
297.0
  9
$UNITMODE
 70
     0
  9
$VISRETAIN
 70
     1
  9
$PLINEGEN
 70
     0
  9
$PSLTSCALE
 70
     1
  9
$TREEDEPTH
 70
  3020
  9
$CMLSTYLE
  2
Standard
  9
$CMLJUST
 70
     0
  9
$CMLSCALE
 40
20.0
  9
$PROXYGRAPHICS
 70
     1
  9
$MEASUREMENT
 70
     1
  9
$CELWEIGHT
370
    -1
  9
$ENDCAPS
280
     0
  9
$JOINSTYLE
280
     0
  9
$LWDISPLAY
290
     1
  9
$INSUNITS
 70
     4
  9
$HYPERLINKBASE
  1

  9
$STYLESHEET
  1

  9
$XEDIT
290
     1
  9
$CEPSNTYPE
380
     0
  9
$PSTYLEMODE
290
     1
  9
$FINGERPRINTGUID
  2
{cbeea8d0-e02e-4f5c-808a-88ea5d7b3915}
  9
$VERSIONGUID
  2
{FAEB1C32-E019-11D5-929B-00C0DF256EC4}
  9
$EXTNAMES
290
     1
  9
$PSVPSCALE
 40
0.0
  9
$OLESTARTUP
290
     0
  0
ENDSEC
  0
SECTION
  2
CLASSES
  0
CLASS
  1
ACDBDICTIONARYWDFLT
  2
AcDbDictionaryWithDefault
  3
ObjectDBX Classes
 90
        0
280
     0
281
     0
  0
CLASS
  1
VISUALSTYLE
  2
AcDbVisualStyle
  3
ObjectDBX Classes
 90
     4095
280
     0
281
     0
  0
CLASS
  1
MATERIAL
  2
AcDbMaterial
  3
ObjectDBX Classes
 90
     1153
280
     0
281
     0
  0
CLASS
  1
SCALE
  2
AcDbScale
  3
ObjectDBX Classes
 90
     1153
280
     0
281
     0
  0
CLASS
  1
TABLESTYLE
  2
AcDbTableStyle
  3
ObjectDBX Classes
 90
     4095
280
     0
281
     0
  0
CLASS
  1
MLEADERSTYLE
  2
AcDbMLeaderStyle
  3
ACDB_MLEADERSTYLE_CLASS
 90
     4095
280
     0
281
     0
  0
CLASS
  1
SUN
  2
AcDbSun
  3
SCENEOE
 90
     1153
280
     0
281
     0
  0
CLASS
  1
ACDBPLACEHOLDER
  2
AcDbPlaceHolder
  3
ObjectDBX Classes
 90
        0
280
     0
281
     0
  0
CLASS
  1
LAYOUT
  2
AcDbLayout
  3
ObjectDBX Classes
 90
        0
280
     0
281
     0
  0
ENDSEC
  0
SECTION
  2
TABLES
  0
TABLE
  2
VPORT
  5
8
330
0
100
AcDbSymbolTable
 70
     1
  0
VPORT
  5
29
330
8
100
AcDbSymbolTableRecord
100
AcDbViewportTableRecord
  2
*Active
 70
     0
 10
0.0
 20
0.0
 11
1.0
 21
1.0
 12
139.7
 22
107.95
 13
0.0
 23
0.0
 14
10.0
 24
10.0
 15
10.0
 25
10.0
 16
0.0
 26
0.0
 36
1.0
 17
0.0
 27
0.0
 37
0.0
 40
215.9
 41
1.2941176471
 42
50.0
 43
0.0
 44
0.0
 50
0.0
 51
0.0
 71
     0
 72
  2000
 73
     1
 74
     3
 75
     0
 76
     0
 77
     0
 78
     0
281
     0
 65
     1
110
0.0
120
0.0
130
0.0
111
1.0
121
0.0
131
0.0
112
0.0
122
1.0
132
0.0
 79
     0
146
0.0
  0
ENDTAB
  0
TABLE
  2
LTYPE
  5
5
330
0
100
AcDbSymbolTable
 70
     6
  0
LTYPE
  5
14
330
5
100
AcDbSymbolTableRecord
100
AcDbLinetypeTableRecord
  2
ByBlock
 70
     0
  3

 72
    65
 73
     0
 40
0.0
  0
LTYPE
  5
15
330
5
100
AcDbSymbolTableRecord
100
AcDbLinetypeTableRecord
  2
ByLayer
 70
     0
  3

 72
    65
 73
     0
 40
0.0
  0
LTYPE
  5
16
330
5
100
AcDbSymbolTableRecord
100
AcDbLinetypeTableRecord
  2
Continuous
 70
     0
  3
Solid line
 72
    65
 73
     0
 40
0.0
  0
LTYPE
  5
6E
330
5
100
AcDbSymbolTableRecord
100
AcDbLinetypeTableRecord
  2
HIDDEN
 70
     0
  3
Hidden __ __ __ __ __ __ __ __ __ __ __ __ __ __
 72
    65
 73
     2
 40
1.905
 49
1.27
 74
     0
 49
-0.635
 74
     0
  0
LTYPE
  5
6F
330
5
100
AcDbSymbolTableRecord
100
AcDbLinetypeTableRecord
  2
PHANTOM
 70
     0
  3
Phantom ______  __  __  ______  __  __  ______
 72
    65
 73
     6
 40
12.7
 49
6.35
 74
     0
 49
-1.27
 74
     0
 49
1.27
 74
     0
 49
-1.27
 74
     0
 49
1.27
 74
     0
 49
-1.27
 74
     0
  0
LTYPE
  5
70
330
5
100
AcDbSymbolTableRecord
100
AcDbLinetypeTableRecord
  2
CENTER
 70
     0
  3
Center ____ _ ____ _ ____ _ ____ _ ____ _ ____
 72
    65
 73
     4
 40
10.16
 49
6.35
 74
     0
 49
-1.27
 74
     0
 49
1.27
 74
     0
 49
-1.27
 74
     0
  0
LTYPE
  5
71
330
5
100
AcDbSymbolTableRecord
100
AcDbLinetypeTableRecord
  2
CENTERX2
 70
     0
  3
Center (2x) ________  __  ________  __  _____
 72
    65
 73
     4
 40
20.32
 49
12.7
 74
     0
 49
-2.54
 74
     0
 49
2.54
 74
     0
 49
-2.54
 74
     0
  0
LTYPE
  5
72
330
5
100
AcDbSymbolTableRecord
100
AcDbLinetypeTableRecord
  2
DOT2
 70
     0
  3
Dot (.5x) ........................................
 72
    65
 73
     2
 40
0.635
 49
0.0
 74
     0
 49
-0.635
 74
     0
  0
ENDTAB
  0
TABLE
  2
LAYER
  5
2
330
0
100
AcDbSymbolTable
 70
    17
  0
LAYER
  5
10
330
2
100
AcDbSymbolTableRecord
100
AcDbLayerTableRecord
  2
0
 70
     0
 62
     7
  6
Continuous
370
    -3
390
F
  0
LAYER
  5
73
330
2
100
AcDbSymbolTableRecord
100
AcDbLayerTableRecord
  2
FORMAT
 70
     0
 62
     7
  6
Continuous
370
    -3
390
F
  0
LAYER
  5
74
330
2
100
AcDbSymbolTableRecord
100
AcDbLayerTableRecord
  2
YARDIMCI_GEOMETRI
 70
     0
 62
    -6
  6
Continuous
290
     0
370
    -3
390
F
  0
LAYER
  5
75
330
2
100
AcDbSymbolTableRecord
100
AcDbLayerTableRecord
  2
SAYFA_CERCEVESI
 70
     0
 62
     7
  6
Continuous
370
    25
390
F
  0
LAYER
  5
76
330
2
100
AcDbSymbolTableRecord
100
AcDbLayerTableRecord
  2
ANTET
 70
     0
 62
     7
  6
Continuous
370
    -3
390
F
  0
LAYER
  5
77
330
2
100
AcDbSymbolTableRecord
100
AcDbLayerTableRecord
  2
OLCU
 70
     0
 62
   150
  6
Continuous
370
    -3
390
F
  0
LAYER
  5
78
330
2
100
AcDbSymbolTableRecord
100
AcDbLayerTableRecord
  2
METIN
 70
     0
 62
    96
  6
Continuous
370
    -3
390
F
  0
LAYER
  5
79
330
2
100
AcDbSymbolTableRecord
100
AcDbLayerTableRecord
  2
BALON
 70
     0
 62
     5
  6
Continuous
370
    -3
390
F
  0
LAYER
  5
7A
330
2
100
AcDbSymbolTableRecord
100
AcDbLayerTableRecord
  2
VURGU
 70
     0
 62
     7
  6
Continuous
370
    -3
390
F
  0
LAYER
  5
7B
330
2
100
AcDbSymbolTableRecord
100
AcDbLayerTableRecord
  2
SILIK
 70
     0
 62
     7
  6
Continuous
370
    -3
390
F
  0
LAYER
  5
7C
330
2
100
AcDbSymbolTableRecord
100
AcDbLayerTableRecord
  2
MODEL
 70
     0
 62
     7
  6
Continuous
370
    -3
390
F
  0
LAYER
  5
7D
330
2
100
AcDbSymbolTableRecord
100
AcDbLayerTableRecord
  2
DETAYLANDıRMA
 70
     0
 62
   190
  6
Continuous
370
    -3
390
F
  0
LAYER
  5
7E
330
2
100
AcDbSymbolTableRecord
100
AcDbLayerTableRecord
  2
TOLERANS
 70
     0
 62
   230
  6
Continuous
370
    -3
390
F
  0
LAYER
  5
7F
330
2
100
AcDbSymbolTableRecord
100
AcDbLayerTableRecord
  2
MERKEZ_CIZGILERI
 70
     0
 62
    30
  6
Continuous
370
    -3
390
F
  0
LAYER
  5
80
330
2
100
AcDbSymbolTableRecord
100
AcDbLayerTableRecord
  2
KESIT-DETAY_CIZGILERI
 70
     0
 62
     7
  6
Continuous
370
    -3
390
F
  0
LAYER
  5
81
330
2
100
AcDbSymbolTableRecord
100
AcDbLayerTableRecord
  2
\U+041E\U+0421\U+0415\U+0412\U+042B\U+0415
 70
     0
 62
     7
  6
Continuous
370
    -3
390
F
  0
LAYER
  5
82
330
2
100
AcDbSymbolTableRecord
100
AcDbLayerTableRecord
  2
\U+0412\U+041E\U+0414\U+042F\U+041D\U+042B\U+0415_\U+0417\U+041D\U+0410\U+041A\U+0418
 70
     0
 62
    11
  6
Continuous
370
    -3
390
F
  0
ENDTAB
  0
TABLE
  2
STYLE
  5
3
330
0
100
AcDbSymbolTable
 70
     1
  0
STYLE
  5
11
330
3
100
AcDbSymbolTableRecord
100
AcDbTextStyleTableRecord
  2
Standard
 70
     0
 40
0.0
 41
1.0
 50
0.0
 71
     0
 42
3.5
  3
txt
  4

  0
ENDTAB
  0
TABLE
  2
VIEW
  5
6
330
0
100
AcDbSymbolTable
 70
     0
  0
ENDTAB
  0
TABLE
  2
UCS
  5
7
330
0
100
AcDbSymbolTable
 70
     0
  0
ENDTAB
  0
TABLE
  2
APPID
  5
9
330
0
100
AcDbSymbolTable
 70
     1
  0
APPID
  5
12
330
9
100
AcDbSymbolTableRecord
100
AcDbRegAppTableRecord
  2
ACAD
 70
     0
  0
ENDTAB
  0
TABLE
  2
DIMSTYLE
  5
A
330
0
100
AcDbSymbolTable
 70
     1
100
AcDbDimStyleTable
  0
DIMSTYLE
105
27
330
A
100
AcDbSymbolTableRecord
100
AcDbDimStyleTableRecord
  2
ISO-25
 70
     0
 41
2.5
 42
0.625
 43
3.75
 44
1.25
 73
     0
 74
     0
 77
     1
 78
     8
140
2.5
141
2.5
143
0.0393700787
147
0.625
171
     3
172
     1
178
     0
271
     2
272
     2
274
     3
278
    44
283
     0
284
     8
340
11
  0
ENDTAB
  0
TABLE
  2
BLOCK_RECORD
  5
1
330
0
100
AcDbSymbolTable
 70
     5
  0
BLOCK_RECORD
  5
1F
330
1
100
AcDbSymbolTableRecord
100
AcDbBlockTableRecord
  2
*Model_Space
340
22
  0
BLOCK_RECORD
  5
1B
330
1
100
AcDbSymbolTableRecord
100
AcDbBlockTableRecord
  2
*Paper_Space
340
1E
  0
BLOCK_RECORD
  5
23
330
1
100
AcDbSymbolTableRecord
100
AcDbBlockTableRecord
  2
*Paper_Space0
340
26
  0
BLOCK_RECORD
  5
97
330
1
100
AcDbSymbolTableRecord
100
AcDbBlockTableRecord
  2
SW_CENTERMARKSYMBOL_0
340
0
102
{BLKREFS
331
A2
102
}
  0
BLOCK_RECORD
  5
AC
330
1
100
AcDbSymbolTableRecord
100
AcDbBlockTableRecord
  2
SW_CENTERMARKSYMBOL_1
340
0
102
{BLKREFS
331
B7
102
}
  0
BLOCK_RECORD
  5
BF
330
1
100
AcDbSymbolTableRecord
100
AcDbBlockTableRecord
  2
SW_CENTERMARKSYMBOL_2
340
0
102
{BLKREFS
331
CA
102
}
  0
BLOCK_RECORD
  5
D2
330
1
100
AcDbSymbolTableRecord
100
AcDbBlockTableRecord
  2
SW_CENTERMARKSYMBOL_3
340
0
102
{BLKREFS
331
DD
102
}
  0
ENDTAB
  0
ENDSEC
  0
SECTION
  2
BLOCKS
  0
BLOCK
  5
20
330
1F
100
AcDbEntity
  8
0
100
AcDbBlockBegin
  2
*Model_Space
 70
     0
 10
0.0
 20
0.0
 30
0.0
  3
*Model_Space
  1

  0
ENDBLK
  5
21
330
1F
100
AcDbEntity
  8
0
100
AcDbBlockEnd
  0
BLOCK
  5
1C
330
1B
100
AcDbEntity
 67
     1
  8
0
100
AcDbBlockBegin
  2
*Paper_Space
 70
     0
 10
0.0
 20
0.0
 30
0.0
  3
*Paper_Space
  1

  0
ENDBLK
  5
1D
330
1B
100
AcDbEntity
 67
     1
  8
0
100
AcDbBlockEnd
  0
BLOCK
  5
24
330
23
100
AcDbEntity
  8
0
100
AcDbBlockBegin
  2
*Paper_Space0
 70
     0
 10
0.0
 20
0.0
 30
0.0
  3
*Paper_Space0
  1

  0
ENDBLK
  5
25
330
23
100
AcDbEntity
  8
0
100
AcDbBlockEnd
  0
BLOCK
  5
98
330
97
100
AcDbEntity
  8
0
100
AcDbBlockBegin
  2
SW_CENTERMARKSYMBOL_0
 70
     0
 10
0.0
 20
0.0
 30
0.0
  3
SW_CENTERMARKSYMBOL_0
  1

  0
LINE
  5
9A
330
97
100
AcDbEntity
  8
FORMAT
 62
     0
100
AcDbLine
 10
0.0
 20
0.0
 30
0.0
 11
0.0
 21
2.5
 31
0.0
  0
LINE
  5
9B
330
97
100
AcDbEntity
  8
FORMAT
 62
     0
100
AcDbLine
 10
0.0
 20
0.0
 30
0.0
 11
-2.5
 21
0.0
 31
0.0
  0
LINE
  5
9C
330
97
100
AcDbEntity
  8
FORMAT
 62
     0
100
AcDbLine
 10
0.0
 20
0.0
 30
0.0
 11
0.0
 21
-2.5
 31
0.0
  0
LINE
  5
9D
330
97
100
AcDbEntity
  8
FORMAT
 62
     0
100
AcDbLine
 10
0.0
 20
0.0
 30
0.0
 11
2.5
 21
0.0
 31
0.0
  0
LINE
  5
9E
330
97
100
AcDbEntity
  8
FORMAT
 62
     0
100
AcDbLine
 10
0.0
 20
5.0
 30
0.0
 11
0.0
 21
202.5
 31
0.0
  0
LINE
  5
9F
330
97
100
AcDbEntity
  8
FORMAT
 62
     0
100
AcDbLine
 10
-5.0
 20
0.0
 30
0.0
 11
-202.5
 21
0.0
 31
0.0
  0
LINE
  5
A0
330
97
100
AcDbEntity
  8
FORMAT
 62
     0
100
AcDbLine
 10
0.0
 20
-5.0
 30
0.0
 11
0.0
 21
-202.5
 31
0.0
  0
LINE
  5
A1
330
97
100
AcDbEntity
  8
FORMAT
 62
     0
100
AcDbLine
 10
5.0
 20
0.0
 30
0.0
 11
202.5
 21
0.0
 31
0.0
  0
ENDBLK
  5
99
330
97
100
AcDbEntity
  8
0
100
AcDbBlockEnd
  0
BLOCK
  5
AD
330
AC
100
AcDbEntity
  8
0
100
AcDbBlockBegin
  2
SW_CENTERMARKSYMBOL_1
 70
     0
 10
0.0
 20
0.0
 30
0.0
  3
SW_CENTERMARKSYMBOL_1
  1

  0
LINE
  5
AF
330
AC
100
AcDbEntity
  8
FORMAT
 62
     0
100
AcDbLine
 10
0.0
 20
0.0
 30
0.0
 11
0.0
 21
2.5
 31
0.0
  0
LINE
  5
B0
330
AC
100
AcDbEntity
  8
FORMAT
 62
     0
100
AcDbLine
 10
0.0
 20
0.0
 30
0.0
 11
-2.5
 21
0.0
 31
0.0
  0
LINE
  5
B1
330
AC
100
AcDbEntity
  8
FORMAT
 62
     0
100
AcDbLine
 10
0.0
 20
0.0
 30
0.0
 11
0.0
 21
-2.5
 31
0.0
  0
LINE
  5
B2
330
AC
100
AcDbEntity
  8
FORMAT
 62
     0
100
AcDbLine
 10
0.0
 20
0.0
 30
0.0
 11
2.5
 21
0.0
 31
0.0
  0
LINE
  5
B3
330
AC
100
AcDbEntity
  8
FORMAT
 62
     0
100
AcDbLine
 10
0.0
 20
5.0
 30
0.0
 11
0.0
 21
202.5
 31
0.0
  0
LINE
  5
B4
330
AC
100
AcDbEntity
  8
FORMAT
 62
     0
100
AcDbLine
 10
-5.0
 20
0.0
 30
0.0
 11
-202.5
 21
0.0
 31
0.0
  0
LINE
  5
B5
330
AC
100
AcDbEntity
  8
FORMAT
 62
     0
100
AcDbLine
 10
0.0
 20
-5.0
 30
0.0
 11
0.0
 21
-202.5
 31
0.0
  0
LINE
  5
B6
330
AC
100
AcDbEntity
  8
FORMAT
 62
     0
100
AcDbLine
 10
5.0
 20
0.0
 30
0.0
 11
202.5
 21
0.0
 31
0.0
  0
ENDBLK
  5
AE
330
AC
100
AcDbEntity
  8
0
100
AcDbBlockEnd
  0
BLOCK
  5
C0
330
BF
100
AcDbEntity
  8
0
100
AcDbBlockBegin
  2
SW_CENTERMARKSYMBOL_2
 70
     0
 10
0.0
 20
0.0
 30
0.0
  3
SW_CENTERMARKSYMBOL_2
  1

  0
LINE
  5
C2
330
BF
100
AcDbEntity
  8
FORMAT
 62
     0
100
AcDbLine
 10
0.0
 20
0.0
 30
0.0
 11
0.0
 21
2.5
 31
0.0
  0
LINE
  5
C3
330
BF
100
AcDbEntity
  8
FORMAT
 62
     0
100
AcDbLine
 10
0.0
 20
0.0
 30
0.0
 11
-2.5
 21
0.0
 31
0.0
  0
LINE
  5
C4
330
BF
100
AcDbEntity
  8
FORMAT
 62
     0
100
AcDbLine
 10
0.0
 20
0.0
 30
0.0
 11
0.0
 21
-2.5
 31
0.0
  0
LINE
  5
C5
330
BF
100
AcDbEntity
  8
FORMAT
 62
     0
100
AcDbLine
 10
0.0
 20
0.0
 30
0.0
 11
2.5
 21
0.0
 31
0.0
  0
LINE
  5
C6
330
BF
100
AcDbEntity
  8
FORMAT
 62
     0
100
AcDbLine
 10
0.0
 20
5.0
 30
0.0
 11
0.0
 21
202.5
 31
0.0
  0
LINE
  5
C7
330
BF
100
AcDbEntity
  8
FORMAT
 62
     0
100
AcDbLine
 10
-5.0
 20
0.0
 30
0.0
 11
-202.5
 21
0.0
 31
0.0
  0
LINE
  5
C8
330
BF
100
AcDbEntity
  8
FORMAT
 62
     0
100
AcDbLine
 10
0.0
 20
-5.0
 30
0.0
 11
0.0
 21
-202.5
 31
0.0
  0
LINE
  5
C9
330
BF
100
AcDbEntity
  8
FORMAT
 62
     0
100
AcDbLine
 10
5.0
 20
0.0
 30
0.0
 11
202.5
 21
0.0
 31
0.0
  0
ENDBLK
  5
C1
330
BF
100
AcDbEntity
  8
0
100
AcDbBlockEnd
  0
BLOCK
  5
D3
330
D2
100
AcDbEntity
  8
0
100
AcDbBlockBegin
  2
SW_CENTERMARKSYMBOL_3
 70
     0
 10
0.0
 20
0.0
 30
0.0
  3
SW_CENTERMARKSYMBOL_3
  1

  0
LINE
  5
D5
330
D2
100
AcDbEntity
  8
FORMAT
 62
     0
100
AcDbLine
 10
0.0
 20
0.0
 30
0.0
 11
0.0
 21
2.5
 31
0.0
  0
LINE
  5
D6
330
D2
100
AcDbEntity
  8
FORMAT
 62
     0
100
AcDbLine
 10
0.0
 20
0.0
 30
0.0
 11
-2.5
 21
0.0
 31
0.0
  0
LINE
  5
D7
330
D2
100
AcDbEntity
  8
FORMAT
 62
     0
100
AcDbLine
 10
0.0
 20
0.0
 30
0.0
 11
0.0
 21
-2.5
 31
0.0
  0
LINE
  5
D8
330
D2
100
AcDbEntity
  8
FORMAT
 62
     0
100
AcDbLine
 10
0.0
 20
0.0
 30
0.0
 11
2.5
 21
0.0
 31
0.0
  0
LINE
  5
D9
330
D2
100
AcDbEntity
  8
FORMAT
 62
     0
100
AcDbLine
 10
0.0
 20
5.0
 30
0.0
 11
0.0
 21
202.5
 31
0.0
  0
LINE
  5
DA
330
D2
100
AcDbEntity
  8
FORMAT
 62
     0
100
AcDbLine
 10
-5.0
 20
0.0
 30
0.0
 11
-202.5
 21
0.0
 31
0.0
  0
LINE
  5
DB
330
D2
100
AcDbEntity
  8
FORMAT
 62
     0
100
AcDbLine
 10
0.0
 20
-5.0
 30
0.0
 11
0.0
 21
-202.5
 31
0.0
  0
LINE
  5
DC
330
D2
100
AcDbEntity
  8
FORMAT
 62
     0
100
AcDbLine
 10
5.0
 20
0.0
 30
0.0
 11
202.5
 21
0.0
 31
0.0
  0
ENDBLK
  5
D4
330
D2
100
AcDbEntity
  8
0
100
AcDbBlockEnd
  0
ENDSEC
  0
SECTION
  2
ENTITIES
  0
LINE
  5
83
330
1F
100
AcDbEntity
  8
0
  6
Continuous
 62
     7
370
    25
100
AcDbLine
 10
-124.2096410469
 20
76.9167778935
 30
0.0
 11
-124.2096410469
 21
-174.0832221065
 31
0.0
  0
LINE
  5
84
330
1F
100
AcDbEntity
  8
0
  6
Continuous
 62
     7
370
    25
100
AcDbLine
 10
275.7903589531
 20
-174.0832221065
 30
0.0
 11
275.7903589531
 21
76.9167778935
 31
0.0
  0
ARC
  5
85
330
1F
100
AcDbEntity
  8
0
  6
Continuous
 62
     7
370
    25
100
AcDbCircle
 10
275.7903589531
 20
76.9167778935
 30
0.0
 40
400.0
100
AcDbArc
 50
90.0
 51
180.0
  0
LINE
  5
86
330
1F
100
AcDbEntity
  8
0
  6
Continuous
 62
     7
370
    25
100
AcDbLine
 10
526.7903589531
 20
476.9167778935
 30
0.0
 11
275.7903589531
 21
476.9167778935
 31
0.0
  0
LINE
  5
87
330
1F
100
AcDbEntity
  8
0
  6
Continuous
 62
     7
370
    25
100
AcDbLine
 10
275.7903589531
 20
76.9167778935
 30
0.0
 11
526.7903589531
 21
76.9167778935
 31
0.0
  0
LINE
  5
88
330
1F
100
AcDbEntity
  8
0
  6
Continuous
 62
     7
370
    25
100
AcDbLine
 10
75.7903589531
 20
-174.0832221065
 30
0.0
 11
275.7903589531
 21
-174.0832221065
 31
0.0
  0
LINE
  5
89
330
1F
100
AcDbEntity
  8
0
  6
Continuous
 62
     7
370
    25
100
AcDbLine
 10
-124.2096410469
 20
-174.0832221065
 30
0.0
 11
75.7903589531
 21
-174.0832221065
 31
0.0
  0
LINE
  5
8A
330
1F
100
AcDbEntity
  8
0
  6
Continuous
 62
     7
370
    25
100
AcDbLine
 10
526.7903589531
 20
276.9167778935
 30
0.0
 11
526.7903589531
 21
76.9167778935
 31
0.0
  0
LINE
  5
8B
330
1F
100
AcDbEntity
  8
0
  6
Continuous
 62
     7
370
    25
100
AcDbLine
 10
526.7903589531
 20
476.9167778935
 30
0.0
 11
526.7903589531
 21
276.9167778935
 31
0.0
  0
LINE
  5
8C
330
1F
100
AcDbEntity
  8
0
  6
Continuous
 62
     1
370
    25
100
AcDbLine
 10
-124.2096410469
 20
76.9167778935
 30
0.0
 11
275.7903589531
 21
76.9167778935
 31
0.0
  0
LINE
  5
8D
330
1F
100
AcDbEntity
  8
0
  6
Continuous
 62
     1
370
    25
100
AcDbLine
 10
275.7903589531
 20
476.9167778935
 30
0.0
 11
275.7903589531
 21
76.9167778935
 31
0.0
  0
LINE
  5
8E
330
1F
100
AcDbEntity
  8
0
  6
Continuous
 62
     7
370
    25
100
AcDbLine
 10
-763.0337610364
 20
276.9167778935
 30
0.0
 11
-763.0337610364
 21
76.9167778935
 31
0.0
  0
LINE
  5
8F
330
1F
100
AcDbEntity
  8
0
  6
Continuous
 62
     7
370
    25
100
AcDbLine
 10
-363.0337610364
 20
76.9167778935
 30
0.0
 11
-363.0337610364
 21
276.9167778935
 31
0.0
  0
LINE
  5
90
330
1F
100
AcDbEntity
  8
0
  6
Continuous
 62
     7
370
    25
100
AcDbLine
 10
-763.0337610364
 20
76.9167778935
 30
0.0
 11
-763.0337610364
 21
-174.0832221065
 31
0.0
  0
LINE
  5
91
330
1F
100
AcDbEntity
  8
0
  6
Continuous
 62
     7
370
    25
100
AcDbLine
 10
-363.0337610364
 20
-174.0832221065
 30
0.0
 11
-363.0337610364
 21
76.9167778935
 31
0.0
  0
CIRCLE
  5
92
330
1F
100
AcDbEntity
  8
0
  6
Continuous
 62
     7
370
    25
100
AcDbCircle
 10
-563.0337610364
 20
276.9167778935
 30
0.0
 40
199.9999999999999
  0
CIRCLE
  5
93
330
1F
100
AcDbEntity
  8
0
  6
Continuous
 62
     7
370
    25
100
AcDbCircle
 10
-563.0337610364
 20
276.9167778935
 30
0.0
 40
176.3
  0
LINE
  5
94
330
1F
100
AcDbEntity
  8
0
  6
Continuous
 62
     7
370
    25
100
AcDbLine
 10
-763.0337610364
 20
-174.0832221065
 30
0.0
 11
-363.0337610364
 21
-174.0832221065
 31
0.0
  0
LINE
  5
95
330
1F
100
AcDbEntity
  8
0
  6
Continuous
 62
     1
370
    25
100
AcDbLine
 10
-563.0337610364
 20
76.9167778935
 30
0.0
 11
-363.0337610364
 21
76.9167778935
 31
0.0
  0
LINE
  5
96
330
1F
100
AcDbEntity
  8
0
  6
Continuous
 62
     1
370
    25
100
AcDbLine
 10
-763.0337610364
 20
76.9167778935
 30
0.0
 11
-563.0337610364
 21
76.9167778935
 31
0.0
  0
INSERT
  5
A2
330
1F
100
AcDbEntity
  8
FORMAT
 62
     7
100
AcDbBlockReference
  2
SW_CENTERMARKSYMBOL_0
 10
-563.0337610364
 20
276.9167778935
 30
0.0
  0
LINE
  5
A3
330
1F
100
AcDbEntity
  8
0
  6
Continuous
 62
     7
370
    25
100
AcDbLine
 10
526.7903589531
 20
1055.8550814835
 30
0.0
 11
275.7903589531
 21
1055.8550814835
 31
0.0
  0
LINE
  5
A4
330
1F
100
AcDbEntity
  8
0
  6
Continuous
 62
     7
370
    25
100
AcDbLine
 10
275.7903589531
 20
655.8550814835
 30
0.0
 11
526.7903589531
 21
655.8550814835
 31
0.0
  0
LINE
  5
A5
330
1F
100
AcDbEntity
  8
0
  6
Continuous
 62
     7
370
    25
100
AcDbLine
 10
275.7903589531
 20
1055.8550814835
 30
0.0
 11
75.7903589531
 21
1055.8550814835
 31
0.0
  0
LINE
  5
A6
330
1F
100
AcDbEntity
  8
0
  6
Continuous
 62
     7
370
    25
100
AcDbLine
 10
75.7903589531
 20
655.8550814835
 30
0.0
 11
275.7903589531
 21
655.8550814835
 31
0.0
  0
CIRCLE
  5
A7
330
1F
100
AcDbEntity
  8
0
  6
Continuous
 62
     7
370
    25
100
AcDbCircle
 10
75.7903589531
 20
855.8550814835
 30
0.0
 40
176.3000000000001
  0
CIRCLE
  5
A8
330
1F
100
AcDbEntity
  8
0
  6
Continuous
 62
     7
370
    25
100
AcDbCircle
 10
75.7903589531
 20
855.8550814835
 30
0.0
 40
199.9999999999999
  0
LINE
  5
A9
330
1F
100
AcDbEntity
  8
0
  6
Continuous
 62
     7
370
    25
100
AcDbLine
 10
526.7903589531
 20
1055.8550814835
 30
0.0
 11
526.7903589531
 21
655.8550814835
 31
0.0
  0
LINE
  5
AA
330
1F
100
AcDbEntity
  8
0
  6
Continuous
 62
     1
370
    25
100
AcDbLine
 10
275.7903589531
 20
855.8550814835
 30
0.0
 11
275.7903589531
 21
655.8550814835
 31
0.0
  0
LINE
  5
AB
330
1F
100
AcDbEntity
  8
0
  6
Continuous
 62
     1
370
    25
100
AcDbLine
 10
275.7903589531
 20
1055.8550814835
 30
0.0
 11
275.7903589531
 21
855.8550814835
 31
0.0
  0
INSERT
  5
B7
330
1F
100
AcDbEntity
  8
FORMAT
 62
     7
100
AcDbBlockReference
  2
SW_CENTERMARKSYMBOL_1
 10
75.7903589531
 20
855.8550814835
 30
0.0
  0
LINE
  5
B8
330
1F
100
AcDbEntity
  8
0
  6
Continuous
 62
     7
370
    25
100
AcDbLine
 10
751.0468548706
 20
76.9167778935
 30
0.0
 11
751.0468548706
 21
-174.0832221065
 31
0.0
  0
LINE
  5
B9
330
1F
100
AcDbEntity
  8
0
  6
Continuous
 62
     7
370
    25
100
AcDbLine
 10
1151.0468548706
 20
-174.0832221065
 30
0.0
 11
1151.0468548706
 21
76.9167778935
 31
0.0
  0
LINE
  5
BA
330
1F
100
AcDbEntity
  8
0
  6
Continuous
 62
     7
370
    25
100
AcDbLine
 10
1151.0468548706
 20
76.9167778935
 30
0.0
 11
1151.0468548706
 21
276.9167778935
 31
0.0
  0
LINE
  5
BB
330
1F
100
AcDbEntity
  8
0
  6
Continuous
 62
     7
370
    25
100
AcDbLine
 10
751.0468548706
 20
276.9167778935
 30
0.0
 11
751.0468548706
 21
76.9167778935
 31
0.0
  0
LINE
  5
BC
330
1F
100
AcDbEntity
  8
0
  6
Continuous
 62
     7
370
    25
100
AcDbLine
 10
751.0468548706
 20
-174.0832221065
 30
0.0
 11
1151.0468548706
 21
-174.0832221065
 31
0.0
  0
ARC
  5
BD
330
1F
100
AcDbEntity
  8
0
  6
Continuous
 62
     7
370
    25
100
AcDbCircle
 10
951.0468548706
 20
276.9167778935
 30
0.0
 40
200.0000000000001
100
AcDbArc
 50
0.0
 51
180.0
  0
LINE
  5
BE
330
1F
100
AcDbEntity
  8
0
  6
Continuous
 62
     1
370
    25
100
AcDbLine
 10
751.0468548706
 20
76.9167778935
 30
0.0
 11
1151.0468548706
 21
76.9167778935
 31
0.0
  0
INSERT
  5
CA
330
1F
100
AcDbEntity
  8
FORMAT
 62
     7
100
AcDbBlockReference
  2
SW_CENTERMARKSYMBOL_2
 10
951.0468548706
 20
276.9167778935
 30
0.0
  0
LINE
  5
CB
330
1F
100
AcDbEntity
  8
0
  6
Continuous
 62
     7
370
    25
100
AcDbLine
 10
75.7903589531
 20
-857.5704463338
 30
0.0
 11
275.7903589531
 21
-857.5704463338
 31
0.0
  0
LINE
  5
CC
330
1F
100
AcDbEntity
  8
0
  6
Continuous
 62
     7
370
    25
100
AcDbLine
 10
275.7903589531
 20
-457.5704463338
 30
0.0
 11
75.7903589531
 21
-457.5704463338
 31
0.0
  0
LINE
  5
CD
330
1F
100
AcDbEntity
  8
0
  6
Continuous
 62
     7
370
    25
100
AcDbLine
 10
526.7903589531
 20
-457.5704463338
 30
0.0
 11
275.7903589531
 21
-457.5704463338
 31
0.0
  0
LINE
  5
CE
330
1F
100
AcDbEntity
  8
0
  6
Continuous
 62
     7
370
    25
100
AcDbLine
 10
275.7903589531
 20
-857.5704463338
 30
0.0
 11
526.7903589531
 21
-857.5704463338
 31
0.0
  0
ARC
  5
CF
330
1F
100
AcDbEntity
  8
0
  6
Continuous
 62
     7
370
    25
100
AcDbCircle
 10
75.7903589531
 20
-657.5704463338
 30
0.0
 40
200.0000000000001
100
AcDbArc
 50
90.0
 51
270.0
  0
LINE
  5
D0
330
1F
100
AcDbEntity
  8
0
  6
Continuous
 62
     7
370
    25
100
AcDbLine
 10
526.7903589531
 20
-457.5704463338
 30
0.0
 11
526.7903589531
 21
-857.5704463338
 31
0.0
  0
LINE
  5
D1
330
1F
100
AcDbEntity
  8
0
  6
Continuous
 62
     1
370
    25
100
AcDbLine
 10
275.7903589531
 20
-457.5704463338
 30
0.0
 11
275.7903589531
 21
-857.5704463338
 31
0.0
  0
INSERT
  5
DD
330
1F
100
AcDbEntity
  8
FORMAT
 62
     7
100
AcDbBlockReference
  2
SW_CENTERMARKSYMBOL_3
 10
75.7903589531
 20
-657.5704463338
 30
0.0
  0
LINE
  5
DE
330
1F
100
AcDbEntity
  8
0
  6
Continuous
 62
     7
370
    25
100
AcDbLine
 10
1212.943975022
 20
-347.3677505383
 30
0.0
 11
1035.4601729441
 21
-449.826968572
 31
0.0
  0
LINE
  5
DF
330
1F
100
AcDbEntity
  8
0
  6
Continuous
 62
     7
370
    25
100
AcDbLine
 10
1235.4439194713
 20
-796.2465135243
 30
0.0
 11
1412.9277215492
 21
-693.7872954906
 31
0.0
  0
LINE
  5
E0
330
1F
100
AcDbEntity
  8
0
  6
Continuous
 62
     7
370
    25
100
AcDbLine
 10
794.0306899704
 20
-867.9857146076
 30
0.0
 11
794.0306899704
 21
-1072.9374583909
 31
0.0
  0
LINE
  5
E1
330
1F
100
AcDbEntity
  8
0
  6
Continuous
 62
     7
370
    25
100
AcDbLine
 10
1194.0306899704
 20
-1072.9374583909
 30
0.0
 11
1194.0306899704
 21
-867.9857146076
 31
0.0
  0
SPLINE
  5
E2
330
1F
100
AcDbEntity
  8
0
  6
Continuous
 62
     7
370
    25
100
AcDbSpline
210
0.0
220
0.0
230
1.0
 70
     8
 71
     3
 72
    53
 73
    49
 74
     0
 42
0.00000001
 43
0.00000001
 40
0.0
 40
0.0
 40
0.0
 40
0.0
 40
0.0143968395609096
 40
0.0365613967094204
 40
0.0587620225393676
 40
0.0810443474445096
 40
0.1033886077709975
 40
0.1257759116945179
 40
0.1481884185144783
 40
0.1706055742750945
 40
0.1930133819714517
 40
0.215400807607778
 40
0.2377592509177049
 40
0.2600824959027813
 40
0.2823665708913615
 40
0.3046095506219613
 40
0.3268113269687382
 40
0.348973369439162
 40
0.3710984906540395
 40
0.3931906265848667
 40
0.4152546368282202
 40
0.4372961267610158
 40
0.4593212909636898
 40
0.4813367756431638
 40
0.5033495567337466
 40
0.5253668297169158
 40
0.5473943241070715
 40
0.5694385313028533
 40
0.5915067431138171
 40
0.6136060929648331
 40
0.6357434407368656
 40
0.6579252434145332
 40
0.6801574069941934
 40
0.7024451156620296
 40
0.7247926351760439
 40
0.747203088960532
 40
0.7696782078959791
 40
0.7922180584083368
 40
0.8148207584064578
 40
0.8374821968711013
 40
0.8601957801005417
 40
0.882952234869853
 40
0.9057395045090879
 40
0.9285398947303121
 40
0.9513326140264672
 40
0.9740975283995672
 40
0.9952747181880786
 40
1.0
 40
1.0
 40
1.0
 40
1.0
 10
1035.46017294413
 20
-449.8269685720461
 30
0.0
 10
1033.441257049752
 20
-451.006959505719
 30
0.0
 10
1028.314132820504
 20
-454.0035975148468
 30
0.0
 10
1020.187091345038
 20
-459.0583275694843
 30
0.0
 10
1011.093714247753
 20
-465.0381541258474
 30
0.0
 10
1002.112337609472
 20
-471.2956451640363
 30
0.0
 10
993.2431650439125
 20
-477.8217699509372
 30
0.0
 10
984.4978145553532
 20
-484.6077764682005
 30
0.0
 10
975.8868338090541
 20
-491.6421813281167
 30
0.0
 10
967.4200522810401
 20
-498.9137017184732
 30
0.0
 10
959.1061178714543
 20
-506.410944290876
 30
0.0
 10
950.952038600578
 20
-514.1233133752279
 30
0.0
 10
942.96377766567
 20
-522.0406610346355
 30
0.0
 10
935.1464184544942
 20
-530.1533352246639
 30
0.0
 10
927.5042732534484
 20
-538.452236841568
 30
0.0
 10
920.0410071921727
 20
-546.9288463385637
 30
0.0
 10
912.7597644450285
 20
-555.5752223151835
 30
0.0
 10
905.6632897879748
 20
-564.3839808209154
 30
0.0
 10
898.7540404971991
 20
-573.3482615676104
 30
0.0
 10
892.0342860775534
 20
-582.4616865084226
 30
0.0
 10
885.5061950023418
 20
-591.7183147882532
 30
0.0
 10
879.1719088799409
 20
-601.1125968427571
 30
0.0
 10
873.0336052188176
 20
-610.6393293117311
 30
0.0
 10
867.0935503607533
 20
-620.2936115300241
 30
0.0
 10
861.3541442971544
 20
-630.0708036160158
 30
0.0
 10
855.818091648752
 20
-639.966248575167
 30
0.0
 10
850.4883475064555
 20
-649.9753299310818
 30
0.0
 10
845.3680621719877
 20
-660.093560677076
 30
0.0
 10
840.4604949933581
 20
-670.3167950299024
 30
0.0
 10
835.7691149228672
 20
-680.6410813133206
 30
0.0
 10
831.2976931547375
 20
-691.0624788159503
 30
0.0
 10
827.0503248127286
 20
-701.5769956963995
 30
0.0
 10
823.0314478713079
 20
-712.1805166357705
 30
0.0
 10
819.2458581296685
 20
-722.8687182843166
 30
0.0
 10
815.6987184033002
 20
-733.6369709705551
 30
0.0
 10
812.3955594222001
 20
-744.4802258911793
 30
0.0
 10
809.3422691601961
 20
-755.392888226363
 30
0.0
 10
806.5450669423446
 20
-766.3686783969935
 30
0.0
 10
804.010457369626
 20
-777.4004862221063
 30
0.0
 10
801.7451625166432
 20
-788.4802254373083
 30
0.0
 10
799.7560187913493
 20
-799.5987008486107
 30
0.0
 10
798.0498741437635
 20
-810.7454987557434
 30
0.0
 10
796.6334050737015
 20
-821.9084621192527
 30
0.0
 10
795.5132054289531
 20
-833.0735677195732
 30
0.0
 10
794.6942473175683
 20
-844.2255998489029
 30
0.0
 10
794.1957210065896
 20
-855.0977166502688
 30
0.0
 10
794.0400057819063
 20
-863.0124858062683
 30
0.0
 10
794.0321272235603
 20
-867.2184396695731
 30
0.0
 10
794.0306899704275
 20
-867.9857146076033
 30
0.0
  0
SPLINE
  5
E3
330
1F
100
AcDbEntity
  8
0
  6
Continuous
 62
     7
370
    25
100
AcDbSpline
210
0.0
220
0.0
230
1.0
 70
     8
 71
     3
 72
    43
 73
    39
 74
     0
 42
0.00000001
 43
0.00000001
 40
0.0
 40
0.0
 40
0.0
 40
0.0
 40
0.0292540134030424
 40
0.0578432461654585
 40
0.0858915390825176
 40
0.1135148231068765
 40
0.1408199448617116
 40
0.1679036354185915
 40
0.1948516281521452
 40
0.2217379511279231
 40
0.2486244309368223
 40
0.2755586790473006
 40
0.3025662214739476
 40
0.3296759369074946
 40
0.3569050717265319
 40
0.3842602100772067
 40
0.4117384279983526
 40
0.4393286800025092
 40
0.4670133795701589
 40
0.4947701329477966
 40
0.5225735866582741
 40
0.550392233493544
 40
0.5781969991958751
 40
0.6059663162891066
 40
0.6336841471454744
 40
0.6613418250437225
 40
0.688939763132904
 40
0.7164889743565985
 40
0.7440123470002689
 40
0.7715456244375523
 40
0.7991355298332756
 40
0.8268273979147435
 40
0.8546927866470015
 40
0.8828164395298227
 40
0.911295483748662
 40
0.9402384503485607
 40
0.9697640860950056
 40
1.0
 40
1.0
 40
1.0
 40
1.0
 10
1194.033251906062
 20
-868.085123818834
 30
0.0
 10
1194.04011835499
 20
-867.9771423796545
 30
0.0
 10
1194.05369521674
 20
-867.7636333174378
 30
0.0
 10
1194.121218248539
 20
-867.0696025675223
 30
0.0
 10
1194.242521575182
 20
-866.1168097373817
 30
0.0
 10
1194.433414587667
 20
-864.8903324639625
 30
0.0
 10
1194.705908009528
 20
-863.4086147245562
 30
0.0
 10
1195.071528818629
 20
-861.6823564456819
 30
0.0
 10
1195.540398438344
 20
-859.7255548103249
 30
0.0
 10
1196.121359198918
 20
-857.5529028218873
 30
0.0
 10
1196.821757170485
 20
-855.1808058615725
 30
0.0
 10
1197.647174612733
 20
-852.6276739624439
 30
0.0
 10
1198.601323609192
 20
-849.9136682758865
 30
0.0
 10
1199.685926337854
 20
-847.0605472634376
 30
0.0
 10
1200.900767692869
 20
-844.0911648837122
 30
0.0
 10
1202.243401057217
 20
-841.0298317397601
 30
0.0
 10
1203.709051522266
 20
-837.9020988339228
 30
0.0
 10
1205.29056603651
 20
-834.7344660866379
 30
0.0
 10
1206.97841819349
 20
-831.5540266460977
 30
0.0
 10
1208.760771231909
 20
-828.3880626655155
 30
0.0
 10
1210.623485749413
 20
-825.2638010950111
 30
0.0
 10
1212.550311383303
 20
-822.2078857275097
 30
0.0
 10
1214.523229704117
 20
-819.2457248922022
 30
0.0
 10
1216.522898768986
 20
-816.4008575310758
 30
0.0
 10
1218.528966073171
 20
-813.6946335442732
 30
0.0
 10
1220.520308205121
 20
-811.1460461858326
 30
0.0
 10
1222.475359962834
 20
-808.7714912193113
 30
0.0
 10
1224.372425218167
 20
-806.5846051488915
 30
0.0
 10
1226.189952916055
 20
-804.5961870963316
 30
0.0
 10
1227.906703577803
 20
-802.8142621661802
 30
0.0
 10
1229.501645788846
 20
-801.2444098540543
 30
0.0
 10
1230.954390568136
 20
-799.8894800011251
 30
0.0
 10
1232.245523742316
 20
-798.7495737331902
 30
0.0
 10
1233.356113837898
 20
-797.8225676310344
 30
0.0
 10
1234.269832003056
 20
-797.102991308468
 30
0.0
 10
1234.963343304199
 20
-796.5883926553289
 30
0.0
 10
1235.44226560372
 20
-796.2560235298304
 30
0.0
 10
1235.547151882945
 20
-796.1885602273051
 30
0.0
 10
1235.600218319926
 20
-796.1544276685144
 30
0.0
  0
LWPOLYLINE
  5
E4
330
1F
100
AcDbEntity
  8
0
  6
Continuous
 62
     7
370
    25
100
AcDbPolyline
 90
      151
 70
   128
 43
0.0
 10
1171.5144920483
 20
-438.9367118322
 10
1171.6385426053
 20
-445.8469607533
 10
1172.0104766497
 20
-452.8883124742
 10
1172.6296416827
 20
-460.0484140714
 10
1173.4949514784
 20
-467.3147042936
 10
1174.6048879895
 20
-474.6744355987
 10
1175.9575040101
 20
-482.1146965171
 10
1177.5504265922
 20
-489.6224343029
 10
1179.3808612081
 20
-497.1844778329
 10
1181.4455966537
 20
-504.7875607132
 10
1183.7410106813
 20
-512.4183445528
 10
1186.2630763548
 20
-520.0634423639
 10
1189.0073691139
 20
-527.7094420472
 10
1191.9690745367
 20
-535.3429299211
 10
1195.1429967855
 20
-542.9505142539
 10
1198.523567722
 20
-550.5188487577
 10
1202.1048566762
 20
-558.034656002
 10
1205.8805808504
 20
-565.484750707
 10
1209.8441163412
 20
-572.8560628751
 10
1213.9885097606
 20
-580.1356607199
 10
1218.3064904344
 20
-587.3107733532
 10
1222.7904831571
 20
-594.3688131893
 10
1227.4326214818
 20
-601.2973980279
 10
1232.2247615206
 20
-608.084372777
 10
1237.1584962313
 20
-614.7178307766
 10
1242.2251701669
 20
-621.1861346873
 10
1247.4158946595
 20
-627.477936906
 10
1252.7215634147
 20
-633.5821994738
 10
1258.1328684864
 20
-639.4882134398
 10
1263.6403166069
 20
-645.1856176487
 10
1269.2342458407
 20
-650.6644169175
 10
1274.9048425351
 20
-655.9149995706
 10
1280.6421585365
 20
-660.9281543018
 10
1286.4361286433
 20
-665.6950863343
 10
1292.276588263
 20
-670.2074328494
 10
1298.1532912448
 20
-674.4572776581
 10
1304.0559278549
 20
-678.4371650884
 10
1309.9741428628
 20
-682.1401130655
 10
1315.8975537084
 20
-685.5596253603
 10
1321.8157687162
 20
-688.6897029863
 10
1327.7184053263
 20
-691.5248547237
 10
1333.5951083081
 20
-694.060106753
 10
1339.4355679278
 20
-696.2910113806
 10
1345.2295380346
 20
-698.2136548418
 10
1350.9668540361
 20
-699.8246641666
 10
1356.6374507304
 20
-701.1212130973
 10
1362.2313799642
 20
-702.1010270464
 10
1367.7388280847
 20
-702.7623870873
 10
1373.1501331565
 20
-703.1041329698
 10
1378.4558019116
 20
-703.1256651555
 10
1383.6465264042
 20
-702.8269458695
 10
1388.7132003398
 20
-702.2084991672
 10
1393.6469350505
 20
-701.271410014
 10
1398.4390750893
 20
-700.0173223828
 10
1403.081213414
 20
-698.4484363695
 10
1407.5652061367
 20
-696.5675043333
 10
1411.8831868105
 20
-694.377826068
 10
1416.0275802299
 20
-691.8832430134
 10
1419.9911157208
 20
-689.0881315158
 10
1423.7668398949
 20
-685.9973951506
 10
1427.3481288491
 20
-682.6164561197
 10
1430.7286997856
 20
-678.9512457389
 10
1433.9026220344
 20
-675.0081940327
 10
1436.8643274572
 20
-670.7942184536
 10
1439.6086202163
 20
-666.3167117468
 10
1442.1306858898
 20
-661.5835289804
 10
1444.4260999174
 20
-656.6029737654
 10
1446.490835363
 20
-651.383783688
 10
1448.321269979
 20
-645.9351149811
 10
1449.914192561
 20
-640.2665264611
 10
1451.2668085816
 20
-634.3879627585
 10
1452.3767450927
 20
-628.3097368715
 10
1453.2420548884
 20
-622.0425120738
 10
1453.8612199214
 20
-615.5972832072
 10
1454.2331539658
 20
-608.9853573933
 10
1454.3572045229
 20
-602.2183341967
 10
1454.2331539658
 20
-595.3080852756
 10
1453.8612199214
 20
-588.2667335546
 10
1453.2420548884
 20
-581.1066319574
 10
1452.3767450927
 20
-573.8403417352
 10
1451.2668085816
 20
-566.4806104302
 10
1449.914192561
 20
-559.0403495118
 10
1448.321269979
 20
-551.532611726
 10
1446.490835363
 20
-543.970568196
 10
1444.4260999174
 20
-536.3674853157
 10
1442.1306858898
 20
-528.7367014761
 10
1439.6086202163
 20
-521.091603665
 10
1436.8643274572
 20
-513.4456039817
 10
1433.9026220344
 20
-505.8121161078
 10
1430.7286997856
 20
-498.204531775
 10
1427.3481288491
 20
-490.6361972712
 10
1423.7668398949
 20
-483.1203900269
 10
1419.9911157208
 20
-475.6702953218
 10
1416.0275802299
 20
-468.2989831537
 10
1411.8831868105
 20
-461.0193853089
 10
1407.5652061367
 20
-453.8442726757
 10
1403.081213414
 20
-446.7862328396
 10
1398.4390750893
 20
-439.8576480009
 10
1393.6469350505
 20
-433.0706732518
 10
1388.7132003398
 20
-426.4372152523
 10
1383.6465264042
 20
-419.9689113416
 10
1378.4558019116
 20
-413.6771091228
 10
1373.1501331565
 20
-407.5728465551
 10
1367.7388280847
 20
-401.666832589
 10
1362.2313799642
 20
-395.9694283801
 10
1356.6374507304
 20
-390.4906291113
 10
1350.9668540361
 20
-385.2400464583
 10
1345.2295380346
 20
-380.2268917271
 10
1339.4355679278
 20
-375.4599596946
 10
1333.5951083081
 20
-370.9476131795
 10
1327.7184053263
 20
-366.6977683708
 10
1321.8157687162
 20
-362.7178809405
 10
1315.8975537084
 20
-359.0149329634
 10
1309.9741428628
 20
-355.5954206686
 10
1304.0559278549
 20
-352.4653430426
 10
1298.1532912448
 20
-349.6301913052
 10
1292.276588263
 20
-347.0949392759
 10
1286.4361286433
 20
-344.8640346482
 10
1280.6421585365
 20
-342.941391187
 10
1274.9048425351
 20
-341.3303818622
 10
1269.2342458407
 20
-340.0338329316
 10
1263.6403166069
 20
-339.0540189825
 10
1258.1328684864
 20
-338.3926589416
 10
1252.7215634147
 20
-338.0509130591
 10
1247.4158946595
 20
-338.0293808734
 10
1242.2251701669
 20
-338.3281001593
 10
1237.1584962313
 20
-338.9465468617
 10
1232.2247615206
 20
-339.8836360149
 10
1227.4326214818
 20
-341.137723646
 10
1222.7904831571
 20
-342.7066096593
 10
1218.3064904344
 20
-344.5875416956
 10
1213.9885097606
 20
-346.7772199609
 10
1209.8441163412
 20
-349.2718030155
 10
1205.8805808503
 20
-352.0669145131
 10
1202.1048566762
 20
-355.1576508782
 10
1198.523567722
 20
-358.5385899091
 10
1195.1429967855
 20
-362.2038002899
 10
1191.9690745367
 20
-366.1468519961
 10
1189.0073691139
 20
-370.3608275752
 10
1186.2630763548
 20
-374.8383342821
 10
1183.7410106813
 20
-379.5715170485
 10
1181.4455966537
 20
-384.5520722635
 10
1179.3808612081
 20
-389.7712623409
 10
1177.5504265922
 20
-395.2199310477
 10
1175.9575040101
 20
-400.8885195677
 10
1174.6048879895
 20
-406.7670832704
 10
1173.4949514784
 20
-412.8453091573
 10
1172.6296416827
 20
-419.1125339551
 10
1172.0104766497
 20
-425.5577628217
 10
1171.6385426053
 20
-432.1696886356
 10
1171.5144920483
 20
-438.9367118322
  0
LWPOLYLINE
  5
E5
330
1F
100
AcDbEntity
  8
0
  6
Continuous
 62
     7
370
    25
100
AcDbPolyline
 90
      142
 70
   128
 43
0.0
 10
1188.2729227624
 20
-448.6111479573
 10
1188.396676112
 20
-442.2697962313
 10
1188.7676904601
 20
-436.0839172485
 10
1189.385229192
 20
-430.0657924987
 10
1190.2480662417
 20
-424.2273704117
 10
1191.3544885262
 20
-418.5802426342
 10
1192.7022993463
 20
-413.1356210155
 10
1194.2888227486
 20
-407.9043153479
 10
1196.1109088375
 20
-402.8967119046
 10
1198.1649400299
 20
-398.1227528188
 10
1200.4468382369
 20
-393.5919163442
 10
1202.9520729609
 20
-389.3131980373
 10
1205.6756702902
 20
-385.2950928972
 10
1208.6122227745
 20
-381.5455784998
 10
1211.7559001605
 20
-378.0720991588
 10
1215.1004609679
 20
-374.881551146
 10
1218.6392648808
 20
-371.980268999
 10
1222.3652859314
 20
-369.3740129451
 10
1226.2711264501
 20
-367.0679574644
 10
1230.3490317518
 20
-365.0666810165
 10
1234.5909055332
 20
-363.3741569506
 10
1238.9883259465
 20
-361.9937456167
 10
1243.5325623205
 20
-360.9281876935
 10
1248.2145924945
 20
-360.1795987478
 10
1253.0251207309
 20
-359.7494650336
 10
1257.9545961713
 20
-359.6386405415
 10
1262.9932317985
 20
-359.8473453034
 10
1268.1310238679
 20
-360.3751649552
 10
1273.3577717687
 20
-361.22105156
 10
1278.663098277
 20
-362.383325688
 10
1284.036470158
 20
-363.8596797517
 10
1289.4672190792
 20
-365.6471825867
 10
1294.9445627913
 20
-367.7422852716
 10
1300.4576265354
 20
-370.140828174
 10
1305.9954646338
 20
-372.8380492088
 10
1311.5470822215
 20
-375.8285932935
 10
1317.1014570756
 20
-379.1065229795
 10
1322.6475614991
 20
-382.665330241
 10
1328.174384215
 20
-386.4979493954
 10
1333.6709522283
 20
-390.5967711322
 10
1339.126352612
 20
-394.9536576204
 10
1344.5297541738
 20
-399.5599586649
 10
1349.8704289598
 20
-404.4065288816
 10
1355.1377735548
 20
-409.4837458538
 10
1360.3213301335
 20
-414.7815292372
 10
1365.4108072243
 20
-420.2893607734
 10
1370.3961001414
 20
-425.9963051725
 10
1375.2673110472
 20
-431.8910318248
 10
1380.0147686033
 20
-437.9618372962
 10
1384.6290471723
 20
-444.1966685643
 10
1389.1009855311
 20
-450.5831469487
 10
1393.4217050601
 20
-457.1085926879
 10
1397.5826273706
 20
-463.7600501132
 10
1401.5754913366
 20
-470.5243133717
 10
1405.3923694961
 20
-477.3879526449
 10
1409.0256837909
 20
-484.3373408121
 10
1412.4682206118
 20
-491.3586805066
 10
1415.7131451207
 20
-498.4380315083
 10
1418.7540148202
 20
-505.561338421
 10
1421.584792345
 20
-512.7144585782
 10
1424.1998574484
 20
-519.8831901221
 10
1426.5940181607
 20
-527.0533001996
 10
1428.7625210974
 20
-534.210553221
 10
1430.7010608967
 20
-541.3407391228
 10
1432.4057887673
 20
-548.429701581
 10
1433.8733201296
 20
-555.4633661167
 10
1435.1007413361
 20
-562.4277680402
 10
1436.0856154556
 20
-569.309080176
 10
1436.8259871116
 20
-576.0936403159
 10
1437.3203863649
 20
-582.7679783437
 10
1437.5678316313
 20
-589.318842979
 10
1437.5678316313
 20
-595.7332280866
 10
1437.3203863649
 20
-601.9983984984
 10
1436.8259871116
 20
-608.1019152987
 10
1436.0856154556
 20
-614.0316605198
 10
1435.1007413361
 20
-619.7758612013
 10
1433.8733201296
 20
-625.3231127646
 10
1432.4057887673
 20
-630.6624016552
 10
1430.7010608967
 20
-635.7831272092
 10
1428.7625210974
 20
-640.6751227
 10
1426.5940181607
 20
-645.3286755234
 10
1424.1998574484
 20
-649.7345464809
 10
1421.584792345
 20
-653.8839881238
 10
1418.7540148202
 20
-657.7687621196
 10
1415.7131451207
 20
-661.3811556092
 10
1412.4682206118
 20
-664.7139965196
 10
1409.0256837909
 20
-667.7606678038
 10
1405.3923694961
 20
-670.515120578
 10
1401.5754913366
 20
-672.9718861311
 10
1397.5826273706
 20
-675.1260867825
 10
1393.4217050601
 20
-676.9734455662
 10
1389.1009855311
 20
-678.5102947225
 10
1384.6290471723
 20
-679.7335829794
 10
1380.0147686033
 20
-680.6408816115
 10
1375.2673110472
 20
-681.2303892612
 10
1370.3961001414
 20
-681.5009355157
 10
1365.4108072243
 20
-681.4519832305
 10
1360.3213301335
 20
-681.0836295958
 10
1355.1377735548
 20
-680.3966059437
 10
1349.8704289598
 20
-679.3922762959
 10
1344.5297541738
 20
-678.0726346561
 10
1339.126352612
 20
-676.4403010505
 10
1333.6709522283
 20
-674.4985163265
 10
1328.174384215
 20
-672.2511357179
 10
1322.6475614991
 20
-669.7026211909
 10
1317.1014570756
 20
-666.8580325851
 10
1311.5470822215
 20
-663.7230175679
 10
1305.9954646338
 20
-660.3038004214
 10
1300.4576265354
 20
-656.6071696848
 10
1294.9445627913
 20
-652.6404646763
 10
1289.4672190792
 20
-648.4115609215
 10
1284.036470158
 20
-643.9288545172
 10
1278.663098277
 20
-639.2012454622
 10
1273.3577717687
 20
-634.2381199866
 10
1268.1310238679
 20
-629.0493319166
 10
1262.9932317985
 20
-623.6451831107
 10
1257.9545961713
 20
-618.0364030061
 10
1253.0251207309
 20
-612.2341273165
 10
1248.2145924944
 20
-606.2498759231
 10
1243.5325623205
 20
-600.0955300033
 10
1238.9883259465
 20
-593.7833084412
 10
1234.5909055332
 20
-587.3257435683
 10
1230.3490317518
 20
-580.735656282
 10
1226.2711264501
 20
-574.0261305906
 10
1222.3652859314
 20
-567.2104876363
 10
1218.6392648808
 20
-560.3022592474
 10
1215.1004609679
 20
-553.3151610717
 10
1211.7559001605
 20
-546.263065346
 10
1208.6122227745
 20
-539.1599733535
 10
1205.6756702902
 20
-532.019987626
 10
1202.9520729609
 20
-524.8572839442
 10
1200.4468382369
 20
-517.6860831932
 10
1198.1649400299
 20
-510.5206231283
 10
1196.1109088375
 20
-503.3751301072
 10
1194.2888227486
 20
-496.2637908449
 10
1192.7022993463
 20
-489.2007242473
 10
1191.3544885262
 20
-482.1999533792
 10
1190.2480662417
 20
-475.2753776233
 10
1189.385229192
 20
-468.4407450836
 10
1188.7676904601
 20
-461.7096252905
 10
1188.396676112
 20
-455.0953822593
 10
1188.2729227624
 20
-448.6111479573
  0
LWPOLYLINE
  5
E6
330
1F
100
AcDbEntity
  8
0
  6
Continuous
 62
     7
370
    25
100
AcDbPolyline
 90
      151
 70
   128
 43
0.0
 10
852.6093337331
 20
-991.2966472087
 10
858.6554960339
 20
-987.9494977317
 10
864.9391524256
 20
-984.7514460168
 10
871.4492792398
 20
-981.7081025335
 10
878.1744555019
 20
-978.8248063402
 10
885.1028829674
 20
-976.1066157184
 10
892.2224068204
 20
-973.5582992979
 10
899.5205369966
 20
-971.1843276918
 10
906.984470096
 20
-968.9888656528
 10
914.6011118435
 20
-966.9757647675
 10
922.3571000614
 20
-965.1485566988
 10
930.2388281108
 20
-963.5104469906
 10
938.2324687626
 20
-962.064309444
 10
946.3239984547
 20
-960.8126810756
 10
954.4992218946
 20
-959.7577576668
 10
962.7437969624
 20
-958.9013899118
 10
971.0432598719
 20
-958.2450801706
 10
979.3830505449
 20
-957.7899798336
 10
987.7485381548
 20
-957.5368873013
 10
996.1250467937
 20
-957.4862465841
 10
1004.497881219
 20
-957.638146523
 10
1012.8523526341
 20
-957.9923206339
 10
1021.1738044573
 20
-958.548147575
 10
1029.4476380343
 20
-959.3046522371
 10
1037.6593382497
 20
-960.2605074538
 10
1045.7944989909
 20
-961.4140363304
 10
1053.8388484216
 20
-962.7632151851
 10
1061.7782740195
 20
-964.3056771
 10
1069.5988473341
 20
-966.0387160725
 10
1077.2868484225
 20
-967.9592917635
 10
1084.8287899183
 20
-970.0640348305
 10
1092.2114406935
 20
-972.3492528391
 10
1099.4218490698
 20
-974.8109367404
 10
1106.4473655409
 20
-977.4447679043
 10
1113.2756649636
 20
-980.2461256959
 10
1119.8947681804
 20
-983.2100955817
 10
1126.2930630352
 20
-986.3314777515
 10
1132.4593247445
 20
-989.6047962403
 10
1138.3827355901
 20
-993.0243085351
 10
1144.0529038965
 20
-996.5840156494
 10
1149.4598822618
 20
-1000.2776726473
 10
1154.5941850087
 20
-1004.0987995994
 10
1159.4468048253
 20
-1008.0406929506
 10
1164.0092285678
 20
-1012.0964372804
 10
1168.2734521945
 20
-1016.2589174352
 10
1172.2319948081
 20
-1020.5208310103
 10
1175.8779117798
 20
-1024.8747011611
 10
1179.2048069324
 20
-1029.3128897199
 10
1182.2068437613
 20
-1033.8276105959
 10
1184.8787556737
 20
-1038.4109434346
 10
1187.2158552282
 20
-1043.0548475126
 10
1189.2140423582
 20
-1047.7511758444
 10
1190.8698115643
 20
-1052.4916894741
 10
1192.1802580647
 20
-1057.2680719299
 10
1193.143082891
 20
-1062.0719438142
 10
1193.7565969213
 20
-1066.8948775031
 10
1194.0197238435
 20
-1071.7284119321
 10
1193.9320020436
 20
-1076.5640674395
 10
1193.4935854153
 20
-1081.3933606423
 10
1192.7052430905
 20
-1086.2078193193
 10
1191.5683580895
 20
-1090.9989972738
 10
1190.0849248948
 20
-1095.7584891518
 10
1188.2575459524
 20
-1100.4779451872
 10
1186.0894271058
 20
-1105.1490858504
 10
1183.5843719723
 20
-1109.7637163735
 10
1180.7467752699
 20
-1114.3137411265
 10
1177.5816151072
 20
-1118.7911778198
 10
1174.0944442509
 20
-1123.188171508
 10
1170.2913803834
 20
-1127.49700837
 10
1166.1790953712
 20
-1131.710129242
 10
1161.7648035595
 20
-1135.8201428782
 10
1157.0562491161
 20
-1139.8198389181
 10
1152.0616924456
 20
-1143.7022005358
 10
1146.7898956974
 20
-1147.4604167498
 10
1141.2501073944
 20
-1151.0878943717
 10
1135.4520462077
 20
-1154.5782695732
 10
1129.405883907
 20
-1157.9254190502
 10
1123.1222275152
 20
-1161.123470765
 10
1116.612100701
 20
-1164.1668142484
 10
1109.886924439
 20
-1167.0501104416
 10
1102.9584969734
 20
-1169.7683010635
 10
1095.8389731205
 20
-1172.3166174839
 10
1088.5408429442
 20
-1174.6905890901
 10
1081.0769098449
 20
-1176.886051129
 10
1073.4602680974
 20
-1178.8991520143
 10
1065.7042798795
 20
-1180.726360083
 10
1057.82255183
 20
-1182.3644697912
 10
1049.8289111783
 20
-1183.8106073379
 10
1041.7373814861
 20
-1185.0622357063
 10
1033.5621580463
 20
-1186.1171591151
 10
1025.3175829785
 20
-1186.9735268701
 10
1017.018120069
 20
-1187.6298366112
 10
1008.678329396
 20
-1188.0849369483
 10
1000.3128417861
 20
-1188.3380294805
 10
991.9363331472
 20
-1188.3886701977
 10
983.5634987218
 20
-1188.2367702588
 10
975.2090273067
 20
-1187.8825961479
 10
966.8875754836
 20
-1187.3267692068
 10
958.6137419065
 20
-1186.5702645448
 10
950.4020416911
 20
-1185.614409328
 10
942.2668809499
 20
-1184.4608804515
 10
934.2225315192
 20
-1183.1117015967
 10
926.2831059214
 20
-1181.5692396819
 10
918.4625326067
 20
-1179.8362007094
 10
910.7745315183
 20
-1177.9156250184
 10
903.2325900225
 20
-1175.8108819513
 10
895.8499392474
 20
-1173.5256639427
 10
888.6395308711
 20
-1171.0639800414
 10
881.6140144
 20
-1168.4301488776
 10
874.7857149773
 20
-1165.628791086
 10
868.1666117605
 20
-1162.6648212001
 10
861.7683169057
 20
-1159.5434390303
 10
855.6020551963
 20
-1156.2701205416
 10
849.6786443508
 20
-1152.8506082468
 10
844.0084760443
 20
-1149.2909011325
 10
838.601497679
 20
-1145.5972441345
 10
833.4671949322
 20
-1141.7761171824
 10
828.6145751155
 20
-1137.8342238312
 10
824.0521513731
 20
-1133.7784795014
 10
819.7879277464
 20
-1129.6159993467
 10
815.8293851328
 20
-1125.3540857716
 10
812.183468161
 20
-1121.0002156208
 10
808.8565730084
 20
-1116.5620270619
 10
805.8545361796
 20
-1112.0473061859
 10
803.1826242672
 20
-1107.4639733473
 10
800.8455247126
 20
-1102.8200692692
 10
798.8473375827
 20
-1098.1237409375
 10
797.1915683766
 20
-1093.3832273078
 10
795.8811218761
 20
-1088.6068448519
 10
794.9182970498
 20
-1083.8029729677
 10
794.3047830195
 20
-1078.9800392788
 10
794.0416560973
 20
-1074.1465048497
 10
794.1293778973
 20
-1069.3108493423
 10
794.5677945255
 20
-1064.4815561395
 10
795.3561368503
 20
-1059.6670974626
 10
796.4930218514
 20
-1054.875919508
 10
797.9764550461
 20
-1050.11642763
 10
799.8038339885
 20
-1045.3969715946
 10
801.971952835
 20
-1040.7258309314
 10
804.4770079685
 20
-1036.1112004083
 10
807.314604671
 20
-1031.5611756554
 10
810.4797648336
 20
-1027.0837389621
 10
813.96693569
 20
-1022.6867452739
 10
817.7699995574
 20
-1018.3779084118
 10
821.8822845696
 20
-1014.1647875399
 10
826.2965763813
 20
-1010.0547739037
 10
831.0051308247
 20
-1006.0550778637
 10
835.9996874953
 20
-1002.172716246
 10
841.2714842435
 20
-998.4145000321
 10
846.8112725465
 20
-994.7870224102
 10
852.6093337331
 20
-991.2966472087
  0
LWPOLYLINE
  5
E7
330
1F
100
AcDbEntity
  8
0
  6
Continuous
 62
     7
370
    25
100
AcDbPolyline
 90
      142
 70
   128
 43
0.0
 10
869.3677644472
 20
-1000.9710833338
 10
863.9381769711
 20
-1004.2484000416
 10
858.7668761376
 20
-1007.6620925166
 10
853.8641290859
 20
-1011.2053831883
 10
849.2396697664
 20
-1014.8712371812
 10
844.902679615
 20
-1018.6523762814
 10
840.8617693242
 20
-1022.5412933873
 10
837.1249617473
 20
-1026.530267414
 10
833.69967597
 20
-1030.6113786226
 10
830.59271258
 20
-1034.7765243447
 10
827.8102401656
 20
-1039.0174350691
 10
825.3577830682
 20
-1043.32569086
 10
823.2402104143
 20
-1047.6927380743
 10
821.4617264484
 20
-1052.109906344
 10
820.0258621859
 20
-1056.5684257904
 10
818.9354684023
 20
-1061.0594444359
 10
818.1927099736
 20
-1065.5740457786
 10
817.7990615778
 20
-1070.1032664954
 10
817.7553047674
 20
-1074.6381142379
 10
818.0615264174
 20
-1079.1695854857
 10
818.7171185533
 20
-1083.6886834219
 10
819.7207795574
 20
-1088.1864357961
 10
821.0705167537
 20
-1092.6539127371
 10
822.763650364
 20
-1097.0822444831
 10
824.7968188282
 20
-1101.4626389912
 10
827.1659854785
 20
-1105.7863993937
 10
829.8664465539
 20
-1110.0449412644
 10
832.8928405388
 20
-1114.2298096627
 10
836.2391588081
 20
-1118.3326959198
 10
839.8987575566
 20
-1122.3454541348
 10
843.8643709899
 20
-1126.2601173476
 10
848.1281257494
 20
-1130.0689133568
 10
852.6815565448
 20
-1133.7642801506
 10
857.5156229607
 20
-1137.3388809201
 10
862.6207274057
 20
-1140.7856186265
 10
867.9867341675
 20
-1144.0976500911
 10
873.6029895364
 20
-1147.2683995819
 10
879.4583429572
 20
-1150.2915718694
 10
885.5411691676
 20
-1153.1611647249
 10
891.8393912794
 20
-1155.8714808372
 10
898.3405047554
 20
-1158.4171391248
 10
905.0316022366
 20
-1160.7930854186
 10
911.8993991684
 20
-1162.9946024973
 10
918.9302601756
 20
-1165.0173194524
 10
926.1102261346
 20
-1166.8572203667
 10
933.4250418875
 20
-1168.5106522872
 10
940.8601845448
 20
-1169.9743324779
 10
948.4008923189
 20
-1171.2453549373
 10
956.0321938325
 20
-1172.3211961679
 10
963.7389378429
 20
-1173.1997201865
 10
971.5058233232
 20
-1173.8791827651
 10
979.3174298412
 20
-1174.3582348935
 10
987.1582481753
 20
-1174.6359254582
 10
995.0127111064
 20
-1174.7117031301
 10
1002.8652243255
 20
-1174.5854174598
 10
1010.7001973944
 20
-1174.2573191757
 10
1018.5020746993
 20
-1173.7280596866
 10
1026.2553663349
 20
-1172.9986897883
 10
1033.9446788586
 20
-1172.0706575772
 10
1041.5547458519
 20
-1170.9458055753
 10
1049.0704582312
 20
-1169.6263670721
 10
1056.4768942455
 20
-1168.1149616907
 10
1063.7593491014
 20
-1166.4145901865
 10
1070.903364159
 20
-1164.5286284899
 10
1077.8947556377
 20
-1162.460821003
 10
1084.7196427768
 20
-1160.2152731664
 10
1091.3644753947
 20
-1157.7964433074
 10
1097.8160607913
 20
-1155.2091337887
 10
1104.061589941
 20
-1152.458481474
 10
1110.0886629237
 20
-1149.5499475287
 10
1115.8853135439
 20
-1146.4893065778
 10
1121.4400330884
 20
-1143.2826352407
 10
1126.7417931758
 20
-1139.9363000664
 10
1131.7800676521
 20
-1136.4569448936
 10
1136.5448534896
 20
-1132.8514776601
 10
1141.0266906472
 20
-1129.1270566871
 10
1145.2166808521
 20
-1125.291076468
 10
1149.1065052666
 20
-1121.3511529862
 10
1152.6884410042
 20
-1117.3151085951
 10
1155.9553764633
 20
-1113.1909564874
 10
1158.9008254457
 20
-1108.9868847853
 10
1161.5189400353
 20
-1104.7112402839
 10
1163.8045222078
 20
-1100.3725118797
 10
1165.7530341515
 20
-1095.9793137164
 10
1167.3606072761
 20
-1091.5403680821
 10
1168.6240498941
 20
-1087.0644880926
 10
1169.5408535572
 20
-1082.5605601933
 10
1170.1091980364
 20
-1078.0375265161
 10
1170.3279549364
 20
-1073.5043671257
 10
1170.1966899357
 20
-1068.9700821906
 10
1169.7156636488
 20
-1064.4436741136
 10
1168.8858311088
 20
-1059.9341296591
 10
1167.7088398714
 20
-1055.4504021101
 10
1166.1870267439
 20
-1051.0013934928
 10
1164.3234131452
 20
-1046.5959369017
 10
1162.1216991077
 20
-1042.2427789633
 10
1159.5862559308
 20
-1037.9505624697
 10
1156.7221175022
 20
-1033.7278092194
 10
1153.5349703037
 20
-1029.5829030981
 10
1150.031142121
 20
-1025.5240734332
 10
1146.2175894807
 20
-1021.5593786554
 10
1142.1018838385
 20
-1017.6966902991
 10
1137.6921965469
 20
-1013.9436773745
 10
1132.997282632
 20
-1010.3077911414
 10
1128.0264634108
 20
-1006.7962503154
 10
1122.7896079846
 20
-1003.4160267356
 10
1117.2971136452
 20
-1000.1738315233
 10
1111.5598852316
 20
-997.0761017567
 10
1105.5893134799
 20
-994.1289876917
 10
1099.3972524076
 20
-991.3383405504
 10
1092.9959957787
 20
-988.7097009044
 10
1086.3982526958
 20
-986.2482876743
 10
1079.6171223671
 20
-983.9589877684
 10
1072.6660680991
 20
-981.8463463797
 10
1065.5588905667
 20
-979.9145579621
 10
1058.3097004129
 20
-978.1674579027
 10
1050.9328902339
 20
-976.608514907
 10
1043.4431060034
 20
-975.2408241118
 10
1035.8552179946
 20
-974.0671009409
 10
1028.184291257
 20
-973.0896757127
 10
1020.4455557054
 20
-972.3104890147
 10
1012.6543758829
 20
-971.73108785
 10
1004.826220456
 20
-971.3526225658
 10
996.9766315025
 20
-971.1758445701
 10
989.1211936549
 20
-971.201104839
 10
981.2755031577
 20
-971.4283532208
 10
973.4551369032
 20
-971.8571385348
 10
965.6756215049
 20
-972.4866094674
 10
957.9524024702
 20
-973.3155162623
 10
950.3008135359
 20
-974.342213202
 10
942.7360462234
 20
-975.5646618745
 10
935.273119678
 20
-976.9804352213
 10
927.9268508495
 20
-978.5867223553
 10
920.7118250748
 20
-980.3803341423
 10
913.6423671195
 20
-982.3577095319
 10
906.7325127383
 20
-984.5149226284
 10
899.9959808072
 20
-986.847690485
 10
893.4461460868
 20
-989.3513816068
 10
887.0960126679
 20
-992.021025147
 10
880.9581881523
 20
-994.8513207754
 10
875.0448586226
 20
-997.8366492021
 10
869.3677644472
 20
-1000.9710833338
  0
LWPOLYLINE
  5
E8
330
1F
100
AcDbEntity
  8
0
  6
Continuous
 62
     1
370
    25
100
AcDbPolyline
 90
       20
 70
   128
 43
0.0
 10
1135.4520462077
 20
-786.3449034253
 10
1141.3741579514
 20
-789.6204167599
 10
1147.2858802988
 20
-792.6036857218
 10
1153.17684208
 20
-795.2894766435
 10
1159.0367085463
 20
-797.6730777351
 10
1164.8551995008
 20
-799.7503073503
 10
1170.6221073331
 20
-801.5175213225
 10
1176.3273149273
 20
-802.971619358
 10
1181.9608134107
 20
-804.1100504746
 10
1187.5127197127
 20
-804.9308174774
 10
1192.9732939029
 20
-805.4324804621
 10
1198.3329562789
 20
-805.6141593413
 10
1203.5823041715
 20
-805.4755353887
 10
1208.7121284408
 20
-805.0168517976
 10
1213.713429632
 20
-804.2389132551
 10
1218.5774337632
 20
-803.1430845296
 10
1223.2956077185
 20
-801.731288077
 10
1227.8596742174
 20
-800.0060006682
 10
1232.2616263365
 20
-797.9702490435
 10
1235.4439194713
 20
-796.2465135243
  0
LWPOLYLINE
  5
E9
330
1F
100
AcDbEntity
  8
0
  6
Continuous
 62
     1
370
    25
100
AcDbPolyline
 90
       58
 70
   128
 43
0.0
 10
1035.4601729441
 20
-449.826968572
 10
1034.4103508596
 20
-450.4458774935
 10
1030.355497108
 20
-453.0913049555
 10
1026.4850184156
 20
-456.0348744603
 10
1022.8057049172
 20
-459.2714219867
 10
1019.3240113789
 20
-462.7952695306
 10
1016.0460458742
 20
-466.6002350659
 10
1012.9775590686
 20
-470.6796433902
 10
1010.1239341305
 20
-475.0263378351
 10
1007.4901772878
 20
-479.6326928215
 10
1005.0809090449
 20
-484.4906272375
 10
1002.900356077
 20
-489.5916186154
 10
1000.9523438149
 20
-494.926718083
 10
999.2402897342
 20
-500.486566063
 10
997.7671973594
 20
-506.2614086927
 10
996.5356509951
 20
-512.2411149359
 10
995.5478111921
 20
-518.4151943559
 10
994.8054109571
 20
-524.7728155194
 10
994.3097527123
 20
-531.3028249987
 10
994.0617060109
 20
-537.9937669381
 10
994.0617060109
 20
-544.8339031518
 10
994.3097527123
 20
-551.8112337168
 10
994.8054109571
 20
-558.9135180241
 10
995.5478111921
 20
-566.1282962539
 10
996.5356509951
 20
-573.4429112335
 10
997.7671973594
 20
-580.8445306427
 10
999.2402897342
 20
-588.3201695259
 10
1000.9523438149
 20
-595.8567130723
 10
1002.900356077
 20
-603.4409396237
 10
1005.0809090449
 20
-611.0595438695
 10
1007.4901772878
 20
-618.6991601889
 10
1010.1239341305
 20
-626.3463860992
 10
1012.9775590686
 20
-633.9878057673
 10
1016.0460458742
 20
-641.6100135468
 10
1019.3240113789
 20
-649.1996374951
 10
1022.8057049172
 20
-656.7433628328
 10
1026.4850184156
 20
-664.2279553023
 10
1030.355497108
 20
-671.6402843851
 10
1034.4103508596
 20
-678.9673463373
 10
1038.642466079
 20
-686.1962870025
 10
1043.0444181981
 20
-693.3144243623
 10
1047.608484697
 20
-700.3092707851
 10
1052.3266586522
 20
-707.1685549333
 10
1057.1906627835
 20
-713.8802432918
 10
1062.1919639746
 20
-720.4325612785
 10
1067.321788244
 20
-726.8140139013
 10
1072.5711361366
 20
-733.0134059237
 10
1077.9307985125
 20
-739.0198615055
 10
1083.3913727028
 20
-744.8228432828
 10
1088.9432790048
 20
-750.4121708535
 10
1094.5767774881
 20
-755.7780386379
 10
1100.2819850824
 20
-760.9110330806
 10
1106.0488929147
 20
-765.802149165
 10
1111.8673838692
 20
-770.4428062116
 10
1117.7272503355
 20
-774.8248629309
 10
1123.6182121167
 20
-778.9406317065
 10
1129.529934464
 20
-782.7828920814
 10
1135.4520462077
 20
-786.3449034253
  0
LWPOLYLINE
  5
EA
330
1F
100
AcDbEntity
  8
0
  6
Continuous
 62
     1
370
    25
100
AcDbPolyline
 90
       20
 70
   128
 43
0.0
 10
1135.4520462077
 20
-786.3449034253
 10
1141.2501073944
 20
-789.8352786268
 10
1146.7898956974
 20
-793.4627562488
 10
1152.0616924456
 20
-797.2209724627
 10
1157.0562491161
 20
-801.1033340804
 10
1161.7648035595
 20
-805.1030301203
 10
1166.1790953712
 20
-809.2130437565
 10
1170.2913803834
 20
-813.4261646285
 10
1174.0944442509
 20
-817.7350014906
 10
1177.5816151072
 20
-822.1319951788
 10
1180.7467752699
 20
-826.609431872
 10
1183.5843719723
 20
-831.159456625
 10
1186.0894271058
 20
-835.7740871481
 10
1188.2575459524
 20
-840.4452278113
 10
1190.0849248948
 20
-845.1646838467
 10
1191.5683580895
 20
-849.9241757247
 10
1192.7052430905
 20
-854.7153536793
 10
1193.4935854153
 20
-859.5298123562
 10
1193.9320020436
 20
-864.359105559
 10
1194.0306899704
 20
-867.9857146076
  0
LWPOLYLINE
  5
EB
330
1F
100
AcDbEntity
  8
0
  6
Continuous
 62
     1
370
    25
100
AcDbPolyline
 90
       58
 70
   128
 43
0.0
 10
794.0306899704
 20
-867.9857146076
 10
794.0416560973
 20
-866.7766681488
 10
794.3047830195
 20
-861.9431337197
 10
794.9182970498
 20
-857.1202000308
 10
795.8811218761
 20
-852.3163281466
 10
797.1915683766
 20
-847.5399456907
 10
798.8473375827
 20
-842.7994320611
 10
800.8455247126
 20
-838.1031037293
 10
803.1826242672
 20
-833.4591996512
 10
805.8545361796
 20
-828.8758668126
 10
808.8565730084
 20
-824.3611459366
 10
812.183468161
 20
-819.9229573778
 10
815.8293851328
 20
-815.569087227
 10
819.7879277464
 20
-811.3071736519
 10
824.0521513731
 20
-807.1446934971
 10
828.6145751155
 20
-803.0889491673
 10
833.4671949322
 20
-799.1470558161
 10
838.601497679
 20
-795.325928864
 10
844.0084760443
 20
-791.6322718661
 10
849.6786443508
 20
-788.0725647517
 10
855.6020551963
 20
-784.653052457
 10
861.7683169057
 20
-781.3797339682
 10
868.1666117605
 20
-778.2583517984
 10
874.7857149773
 20
-775.2943819125
 10
881.6140144
 20
-772.4930241209
 10
888.6395308711
 20
-769.8591929571
 10
895.8499392474
 20
-767.3975090558
 10
903.2325900225
 20
-765.1122910472
 10
910.7745315183
 20
-763.0075479801
 10
918.4625326067
 20
-761.0869722891
 10
926.2831059214
 20
-759.3539333166
 10
934.2225315192
 20
-757.8114714018
 10
942.2668809499
 20
-756.4622925471
 10
950.4020416911
 20
-755.3087636705
 10
958.6137419065
 20
-754.3529084538
 10
966.8875754836
 20
-753.5964037917
 10
975.2090273067
 20
-753.0405768506
 10
983.5634987218
 20
-752.6864027397
 10
991.9363331472
 20
-752.5345028008
 10
1000.3128417861
 20
-752.585143518
 10
1008.678329396
 20
-752.8382360503
 10
1017.018120069
 20
-753.2933363873
 10
1025.3175829785
 20
-753.9496461285
 10
1033.5621580463
 20
-754.8060138834
 10
1041.7373814861
 20
-755.8609372922
 10
1049.8289111783
 20
-757.1125656607
 10
1057.82255183
 20
-758.5587032073
 10
1065.7042798795
 20
-760.1968129155
 10
1073.4602680974
 20
-762.0240209842
 10
1081.0769098449
 20
-764.0371218695
 10
1088.5408429442
 20
-766.2325839085
 10
1095.8389731205
 20
-768.6065555146
 10
1102.9584969734
 20
-771.1548719351
 10
1109.886924439
 20
-773.8730625569
 10
1116.612100701
 20
-776.7563587501
 10
1123.1222275152
 20
-779.7997022335
 10
1129.405883907
 20
-782.9977539484
 10
1135.4520462077
 20
-786.3449034253
  0
ENDSEC
  0
SECTION
  2
OBJECTS
  0
DICTIONARY
  5
C
330
0
100
AcDbDictionary
281
     1
  3
ACAD_GROUP
350
D
  3
ACAD_LAYOUT
350
1A
  3
ACAD_MLINESTYLE
350
17
  3
ACAD_PLOTSETTINGS
350
19
  3
ACAD_PLOTSTYLENAME
350
E
  3
ACAD_SCALELIST
350
47
  3
DWGPROPS
350
EC
  0
DICTIONARY
  5
D
102
{ACAD_REACTORS
330
C
102
}
330
C
100
AcDbDictionary
281
     1
  0
DICTIONARY
  5
1A
102
{ACAD_REACTORS
330
C
102
}
330
C
100
AcDbDictionary
281
     1
  3
Layout1
350
1E
  3
Layout2
350
26
  3
Model
350
22
  0
DICTIONARY
  5
17
102
{ACAD_REACTORS
330
C
102
}
330
C
100
AcDbDictionary
281
     1
  3
Standard
350
18
  0
DICTIONARY
  5
19
102
{ACAD_REACTORS
330
C
102
}
330
C
100
AcDbDictionary
281
     1
  0
ACDBDICTIONARYWDFLT
  5
E
102
{ACAD_REACTORS
330
C
102
}
330
C
100
AcDbDictionary
281
     1
  3
Normal
350
F
100
AcDbDictionaryWithDefault
340
F
  0
DICTIONARY
  5
47
102
{ACAD_REACTORS
330
C
102
}
330
C
100
AcDbDictionary
281
     1
  3
A0
350
48
  3
A1
350
49
  3
A2
350
4A
  3
A3
350
4B
  3
A4
350
4C
  3
A5
350
4D
  3
A6
350
4E
  3
A7
350
4F
  3
A8
350
50
  3
A9
350
51
  3
B0
350
52
  3
B1
350
53
  3
B2
350
54
  3
B3
350
55
  3
B4
350
56
  3
B5
350
57
  3
B6
350
58
  3
B7
350
59
  3
B8
350
5A
  3
B9
350
5B
  3
C0
350
5C
  3
C1
350
5D
  3
C2
350
5E
  3
C3
350
5F
  3
C4
350
60
  3
C5
350
61
  3
C6
350
62
  3
C7
350
63
  3
C8
350
64
  3
C9
350
65
  3
D0
350
66
  3
D1
350
67
  3
D2
350
68
  0
XRECORD
  5
EC
102
{ACAD_REACTORS
330
C
102
}
330
C
100
AcDbXrecord
280
     1
  1
DWGPROPS COOKIE
  2

  3

  4

  6

  7

  8
b.kav
  9

300
=
301
=
302
=
303
=
304
=
305
=
306
=
307
=
308
=
309
=
 40
0.0
 41
2459935.574937002
 42
2459935.574937188
  1

 90
        0
  0
LAYOUT
  5
1E
102
{ACAD_REACTORS
330
1A
102
}
330
1A
100
AcDbPlotSettings
  1

  2
none_device
  4

  6

 40
0.0
 41
0.0
 42
0.0
 43
0.0
 44
0.0
 45
0.0
 46
0.0
 47
0.0
 48
0.0
 49
0.0
140
0.0
141
0.0
142
1.0
143
1.0
 70
   688
 72
     1
 73
     0
 74
     5
  7

 75
    16
147
1.0
148
0.0
149
0.0
100
AcDbLayout
  1
Layout1
 70
     1
 71
     1
 10
0.0
 20
0.0
 11
420.0
 21
297.0
 12
0.0
 22
0.0
 32
0.0
 14
1.0000000000E+20
 24
1.0000000000E+20
 34
1.0000000000E+20
 15
-1.0000000000E+20
 25
-1.0000000000E+20
 35
-1.0000000000E+20
146
0.0
 13
0.0
 23
0.0
 33
0.0
 16
1.0
 26
0.0
 36
0.0
 17
0.0
 27
1.0
 37
0.0
 76
     0
330
1B
  0
LAYOUT
  5
26
102
{ACAD_REACTORS
330
1A
102
}
330
1A
100
AcDbPlotSettings
  1

  2
none_device
  4

  6

 40
0.0
 41
0.0
 42
0.0
 43
0.0
 44
0.0
 45
0.0
 46
0.0
 47
0.0
 48
0.0
 49
0.0
140
0.0
141
0.0
142
1.0
143
1.0
 70
   688
 72
     1
 73
     0
 74
     5
  7

 75
    16
147
1.0
148
0.0
149
0.0
100
AcDbLayout
  1
Layout2
 70
     1
 71
     2
 10
0.0
 20
0.0
 11
0.0
 21
0.0
 12
0.0
 22
0.0
 32
0.0
 14
0.0
 24
0.0
 34
0.0
 15
0.0
 25
0.0
 35
0.0
146
0.0
 13
0.0
 23
0.0
 33
0.0
 16
1.0
 26
0.0
 36
0.0
 17
0.0
 27
1.0
 37
0.0
 76
     0
330
23
  0
LAYOUT
  5
22
102
{ACAD_REACTORS
330
1A
102
}
330
1A
100
AcDbPlotSettings
  1

  2
none_device
  4
Letter_(8.50_x_11.00_Inches)
  6

 40
6.35
 41
6.35
 42
6.35000508
 43
6.35000508
 44
215.9
 45
279.4
 46
0.0
 47
0.0
 48
0.0
 49
0.0
140
0.0
141
0.0
142
1.0
143
1.0
 70
  1712
 72
     1
 73
     0
 74
     0
  7

 75
     0
147
1.0
148
0.0
149
0.0
100
AcDbLayout
  1
Model
 70
     1
 71
     0
 10
0.0
 20
0.0
 11
279.4
 21
215.9
 12
0.0
 22
0.0
 32
0.0
 14
0.0
 24
0.0
 34
0.0
 15
279.4
 25
215.9
 35
0.0
146
0.0
 13
0.0
 23
0.0
 33
0.0
 16
1.0
 26
0.0
 36
0.0
 17
0.0
 27
1.0
 37
0.0
 76
     0
330
1F
331
29
  0
MLINESTYLE
  5
18
102
{ACAD_REACTORS
330
17
102
}
330
17
100
AcDbMlineStyle
  2
Standard
 70
     0
  3

 62
   256
 51
90.0
 52
90.0
 71
     2
 49
0.5
 62
   256
  6
BYLAYER
 49
-0.5
 62
   256
  6
BYLAYER
  0
ACDBPLACEHOLDER
  5
F
102
{ACAD_REACTORS
330
E
102
}
330
E
  0
SCALE
  5
48
102
{ACAD_REACTORS
330
47
102
}
330
47
100
AcDbScale
 70
     0
300
1:1
140
1.0
141
1.0
290
     1
  0
SCALE
  5
49
102
{ACAD_REACTORS
330
47
102
}
330
47
100
AcDbScale
 70
     0
300
1:2
140
1.0
141
2.0
290
     0
  0
SCALE
  5
4A
102
{ACAD_REACTORS
330
47
102
}
330
47
100
AcDbScale
 70
     0
300
1:4
140
1.0
141
4.0
290
     0
  0
SCALE
  5
4B
102
{ACAD_REACTORS
330
47
102
}
330
47
100
AcDbScale
 70
     0
300
1:5
140
1.0
141
5.0
290
     0
  0
SCALE
  5
4C
102
{ACAD_REACTORS
330
47
102
}
330
47
100
AcDbScale
 70
     0
300
1:8
140
1.0
141
8.0
290
     0
  0
SCALE
  5
4D
102
{ACAD_REACTORS
330
47
102
}
330
47
100
AcDbScale
 70
     0
300
1:10
140
1.0
141
10.0
290
     0
  0
SCALE
  5
4E
102
{ACAD_REACTORS
330
47
102
}
330
47
100
AcDbScale
 70
     0
300
1:16
140
1.0
141
16.0
290
     0
  0
SCALE
  5
4F
102
{ACAD_REACTORS
330
47
102
}
330
47
100
AcDbScale
 70
     0
300
1:20
140
1.0
141
20.0
290
     0
  0
SCALE
  5
50
102
{ACAD_REACTORS
330
47
102
}
330
47
100
AcDbScale
 70
     0
300
1:30
140
1.0
141
30.0
290
     0
  0
SCALE
  5
51
102
{ACAD_REACTORS
330
47
102
}
330
47
100
AcDbScale
 70
     0
300
1:40
140
1.0
141
40.0
290
     0
  0
SCALE
  5
52
102
{ACAD_REACTORS
330
47
102
}
330
47
100
AcDbScale
 70
     0
300
1:50
140
1.0
141
50.0
290
     0
  0
SCALE
  5
53
102
{ACAD_REACTORS
330
47
102
}
330
47
100
AcDbScale
 70
     0
300
1:100
140
1.0
141
100.0
290
     0
  0
SCALE
  5
54
102
{ACAD_REACTORS
330
47
102
}
330
47
100
AcDbScale
 70
     0
300
2:1
140
2.0
141
1.0
290
     0
  0
SCALE
  5
55
102
{ACAD_REACTORS
330
47
102
}
330
47
100
AcDbScale
 70
     0
300
4:1
140
4.0
141
1.0
290
     0
  0
SCALE
  5
56
102
{ACAD_REACTORS
330
47
102
}
330
47
100
AcDbScale
 70
     0
300
8:1
140
8.0
141
1.0
290
     0
  0
SCALE
  5
57
102
{ACAD_REACTORS
330
47
102
}
330
47
100
AcDbScale
 70
     0
300
10:1
140
10.0
141
1.0
290
     0
  0
SCALE
  5
58
102
{ACAD_REACTORS
330
47
102
}
330
47
100
AcDbScale
 70
     0
300
100:1
140
100.0
141
1.0
290
     0
  0
SCALE
  5
59
102
{ACAD_REACTORS
330
47
102
}
330
47
100
AcDbScale
 70
     0
300
1/128" = 1'-0"
140
0.0078125
141
12.0
290
     0
  0
SCALE
  5
5A
102
{ACAD_REACTORS
330
47
102
}
330
47
100
AcDbScale
 70
     0
300
1/64" = 1'-0"
140
0.015625
141
12.0
290
     0
  0
SCALE
  5
5B
102
{ACAD_REACTORS
330
47
102
}
330
47
100
AcDbScale
 70
     0
300
1/32" = 1'-0"
140
0.03125
141
12.0
290
     0
  0
SCALE
  5
5C
102
{ACAD_REACTORS
330
47
102
}
330
47
100
AcDbScale
 70
     0
300
1/16" = 1'-0"
140
0.0625
141
12.0
290
     0
  0
SCALE
  5
5D
102
{ACAD_REACTORS
330
47
102
}
330
47
100
AcDbScale
 70
     0
300
3/32" = 1'-0"
140
0.09375
141
12.0
290
     0
  0
SCALE
  5
5E
102
{ACAD_REACTORS
330
47
102
}
330
47
100
AcDbScale
 70
     0
300
1/8" = 1'-0"
140
0.125
141
12.0
290
     0
  0
SCALE
  5
5F
102
{ACAD_REACTORS
330
47
102
}
330
47
100
AcDbScale
 70
     0
300
3/16" = 1'-0"
140
0.1875
141
12.0
290
     0
  0
SCALE
  5
60
102
{ACAD_REACTORS
330
47
102
}
330
47
100
AcDbScale
 70
     0
300
1/4" = 1'-0"
140
0.25
141
12.0
290
     0
  0
SCALE
  5
61
102
{ACAD_REACTORS
330
47
102
}
330
47
100
AcDbScale
 70
     0
300
3/8" = 1'-0"
140
0.375
141
12.0
290
     0
  0
SCALE
  5
62
102
{ACAD_REACTORS
330
47
102
}
330
47
100
AcDbScale
 70
     0
300
1/2" = 1'-0"
140
0.5
141
12.0
290
     0
  0
SCALE
  5
63
102
{ACAD_REACTORS
330
47
102
}
330
47
100
AcDbScale
 70
     0
300
3/4" = 1'-0"
140
0.75
141
12.0
290
     0
  0
SCALE
  5
64
102
{ACAD_REACTORS
330
47
102
}
330
47
100
AcDbScale
 70
     0
300
1" = 1'-0"
140
1.0
141
12.0
290
     0
  0
SCALE
  5
65
102
{ACAD_REACTORS
330
47
102
}
330
47
100
AcDbScale
 70
     0
300
1-1/2" = 1'-0"
140
1.5
141
12.0
290
     0
  0
SCALE
  5
66
102
{ACAD_REACTORS
330
47
102
}
330
47
100
AcDbScale
 70
     0
300
3" = 1'-0"
140
3.0
141
12.0
290
     0
  0
SCALE
  5
67
102
{ACAD_REACTORS
330
47
102
}
330
47
100
AcDbScale
 70
     0
300
6" = 1'-0"
140
6.0
141
12.0
290
     0
  0
SCALE
  5
68
102
{ACAD_REACTORS
330
47
102
}
330
47
100
AcDbScale
 70
     0
300
1'-0" = 1'-0"
140
12.0
141
12.0
290
     0
  0
ENDSEC
  0
EOF
